999
dxflib 3.12.2.0
  0
SECTION
  2
HEADER
  9
$ACADVER
  1
AC1015
  9
$HANDSEED
  5
FFFF
  9
$DIMADEC
 70
0
  9
$DIMASZ
 40
0.18
  9
$DIMAUNIT
 70
0
  9
$DIMAZIN
 70
0
  9
$DIMDEC
 70
4
  9
$DIMEXE
 40
0.18
  9
$DIMEXO
 40
0.0625
  9
$DIMGAP
 40
0.09
  9
$DIMLUNIT
 70
2
  9
$DIMSCALE
 40
1.0
  9
$DIMTSZ
 40
0.0
  9
$DIMTXT
 40
0.18
  9
$DIMZIN
 70
0
  9
$DWGCODEPAGE
  3
ANSI_1252
  9
$EXTMAX
 10
1000.0
 20
1000.0
 30
0.0
  9
$EXTMIN
 10
0.0
 20
0.0
 30
0.0
  9
$FILLMODE
 70
0
  9
$INSUNITS
 70
0
  9
$LTSCALE
 40
1.0
  9
$MAXACTVP
 70
32
  9
$MEASUREMENT
 70
1
  9
$PDMODE
 70
0
  9
$PDSIZE
 40
0
  9
$SPLFRAME
 70
1
  0
ENDSEC
  0
SECTION
  2
TABLES
  0
TABLE
  2
VPORT
  5
8
100
AcDbSymbolTable
 70
1
  0
VPORT
  5
30
100
AcDbSymbolTableRecord
100
AcDbViewportTableRecord
  2
*Active
 70
0
 10
0.0
 20
0.0
 11
1.0
 21
1.0
 12
286.3055555555554861
 22
148.5
 13
0.0
 23
0.0
 14
10.0
 24
10.0
 15
10.0
 25
10.0
 16
0.0
 26
0.0
 36
1.0
 17
0.0
 27
0.0
 37
0.0
 40
297.0
 41
1.92798353909465
 42
50.0
 43
0.0
 44
0.0
 50
0.0
 51
0.0
 71
0
 72
100
 73
1
 74
3
 75
1
 76
1
 77
0
 78
0
281
0
 65
1
110
0.0
120
0.0
130
0.0
111
1.0
121
0.0
131
0.0
112
0.0
122
1.0
132
0.0
 79
0
146
0.0
  0
ENDTAB
  0
TABLE
  2
LTYPE
  5
5
100
AcDbSymbolTable
 70
41
  0
LTYPE
  5
16
100
AcDbSymbolTableRecord
100
AcDbLinetypeTableRecord
  2
Continuous
 70
0
  3
Solid line
 72
65
 73
0
 40
0.0
  0
LTYPE
  5
31
100
AcDbSymbolTableRecord
100
AcDbLinetypeTableRecord
  2
ACAD_ISO15W100
 70
0
  3
ISO double-dash triple-dot __ __ . . . __ __ . .
 72
65
 73
10
 40
39.0000000000000071
 49
12.0
 74
0
 49
-3.0
 74
0
 49
12.0
 74
0
 49
-2.9500000000000002
 74
0
 49
0.1
 74
0
 49
-2.9000000000000004
 74
0
 49
0.1
 74
0
 49
-2.9000000000000004
 74
0
 49
0.1
 74
0
 49
-2.9500000000000002
 74
0
  0
LTYPE
  5
32
100
AcDbSymbolTableRecord
100
AcDbLinetypeTableRecord
  2
DIVIDE
 70
0
  3
Divide ____ . . ____ . . ____ . . ____ . . ____
 72
65
 73
6
 40
31.7500000000000036
 49
12.6999999999999993
 74
0
 49
-6.2999999999999998
 74
0
 49
0.1
 74
0
 49
-6.25
 74
0
 49
0.1
 74
0
 49
-6.2999999999999998
 74
0
  0
LTYPE
  5
33
100
AcDbSymbolTableRecord
100
AcDbLinetypeTableRecord
  2
ACAD_ISO10W100
 70
0
  3
ISO dash dot __ . __ . __ . __ . __ . __ . __ . 
 72
65
 73
4
 40
18.0
 49
12.0
 74
0
 49
-2.9500000000000002
 74
0
 49
0.1
 74
0
 49
-2.9500000000000002
 74
0
  0
LTYPE
  5
34
100
AcDbSymbolTableRecord
100
AcDbLinetypeTableRecord
  2
ACAD_ISO04W100
 70
0
  3
ISO long-dash dot ____ . ____ . ____ . ____ . _
 72
65
 73
4
 40
30.0
 49
24.0
 74
0
 49
-2.9500000000000002
 74
0
 49
0.1
 74
0
 49
-2.9500000000000002
 74
0
  0
LTYPE
  5
35
100
AcDbSymbolTableRecord
100
AcDbLinetypeTableRecord
  2
CENTER2
 70
0
  3
Center (.5x) ___ _ ___ _ ___ _ ___ _ ___ _ ___
 72
65
 73
4
 40
28.5750000000000028
 49
19.0500000000000007
 74
0
 49
-3.1749999999999998
 74
0
 49
3.1749999999999998
 74
0
 49
-3.1749999999999998
 74
0
  0
LTYPE
  5
36
100
AcDbSymbolTableRecord
100
AcDbLinetypeTableRecord
  2
ACAD_ISO11W100
 70
0
  3
ISO double-dash dot __ __ . __ __ . __ __ . __ _
 72
65
 73
6
 40
33.0
 49
12.0
 74
0
 49
-3.0
 74
0
 49
12.0
 74
0
 49
-2.9500000000000002
 74
0
 49
0.1
 74
0
 49
-2.9500000000000002
 74
0
  0
LTYPE
  5
37
100
AcDbSymbolTableRecord
100
AcDbLinetypeTableRecord
  2
HIDDEN2
 70
0
  3
Hidden (.5x) _ _ _ _ _ _ _ _ _ _ _ _ _ _ _ _ _ 
 72
65
 73
2
 40
4.7624999999999993
 49
3.1749999999999998
 74
0
 49
-1.5874999999999999
 74
0
  0
LTYPE
  5
38
100
AcDbSymbolTableRecord
100
AcDbLinetypeTableRecord
  2
BORDERX2
 70
0
  3
Border (2x) ____  ____  .  ____  ____  .  ___
 72
65
 73
6
 40
88.8999999999999773
 49
25.3999999999999986
 74
0
 49
-12.6999999999999993
 74
0
 49
25.3999999999999986
 74
0
 49
-12.6499999999999986
 74
0
 49
0.1
 74
0
 49
-12.6499999999999986
 74
0
  0
LTYPE
  5
39
100
AcDbSymbolTableRecord
100
AcDbLinetypeTableRecord
  2
ACAD_ISO05W100
 70
0
  3
ISO long-dash double-dot ____ .. ____ .. ____ . 
 72
65
 73
6
 40
33.0000000000000071
 49
24.0
 74
0
 49
-2.9500000000000002
 74
0
 49
0.1
 74
0
 49
-2.9000000000000004
 74
0
 49
0.1
 74
0
 49
-2.9500000000000002
 74
0
  0
LTYPE
  5
3A
100
AcDbSymbolTableRecord
100
AcDbLinetypeTableRecord
  2
DASHDOTX2
 70
0
  3
Dash dot (2x) ____  .  ____  .  ____  .  ___
 72
65
 73
4
 40
50.7999999999999972
 49
25.3999999999999986
 74
0
 49
-12.6499999999999986
 74
0
 49
0.1
 74
0
 49
-12.6499999999999986
 74
0
  0
LTYPE
  5
3B
100
AcDbSymbolTableRecord
100
AcDbLinetypeTableRecord
  2
HIDDENX2
 70
0
  3
Hidden (2x) ____ ____ ____ ____ ____ ____ ____ 
 72
65
 73
2
 40
19.0499999999999972
 49
12.6999999999999993
 74
0
 49
-6.3499999999999996
 74
0
  0
LTYPE
  5
3C
100
AcDbSymbolTableRecord
100
AcDbLinetypeTableRecord
  2
CENTERX2
 70
0
  3
Center (2x) ________  __  ________  __  _____
 72
65
 73
4
 40
101.6000000000000085
 49
63.5
 74
0
 49
-12.6999999999999993
 74
0
 49
12.6999999999999993
 74
0
 49
-12.6999999999999993
 74
0
  0
LTYPE
  5
3D
100
AcDbSymbolTableRecord
100
AcDbLinetypeTableRecord
  2
BORDER2
 70
0
  3
Border (.5x) __.__.__.__.__.__.__.__.__.__.__.
 72
65
 73
6
 40
22.2250000000000014
 49
6.3499999999999996
 74
0
 49
-3.1749999999999998
 74
0
 49
6.3499999999999996
 74
0
 49
-3.125
 74
0
 49
0.1
 74
0
 49
-3.125
 74
0
  0
LTYPE
  5
3E
100
AcDbSymbolTableRecord
100
AcDbLinetypeTableRecord
  2
DASHDOT2
 70
0
  3
Dash dot (.5x) _._._._._._._._._._._._._._._.
 72
65
 73
4
 40
12.6999999999999993
 49
6.3499999999999996
 74
0
 49
-3.125
 74
0
 49
0.1
 74
0
 49
-3.125
 74
0
  0
LTYPE
  5
3F
100
AcDbSymbolTableRecord
100
AcDbLinetypeTableRecord
  2
ACAD_ISO12W100
 70
0
  3
ISO dash double-dot __ . . __ . . __ . . __ . . 
 72
65
 73
6
 40
21.0
 49
12.0
 74
0
 49
-2.9500000000000002
 74
0
 49
0.1
 74
0
 49
-2.9000000000000004
 74
0
 49
0.1
 74
0
 49
-2.9500000000000002
 74
0
  0
LTYPE
  5
40
100
AcDbSymbolTableRecord
100
AcDbLinetypeTableRecord
  2
ACAD_ISO07W100
 70
0
  3
ISO dot . . . . . . . . . . . . . . . . . . . . 
 72
65
 73
2
 40
3.0
 49
0.1
 74
0
 49
-2.8999999999999999
 74
0
  0
LTYPE
  5
41
100
AcDbSymbolTableRecord
100
AcDbLinetypeTableRecord
  2
HIDDEN
 70
0
  3
Hidden __ __ __ __ __ __ __ __ __ __ __ __ __ __
 72
65
 73
2
 40
9.5249999999999986
 49
6.3499999999999996
 74
0
 49
-3.1749999999999998
 74
0
  0
LTYPE
  5
42
100
AcDbSymbolTableRecord
100
AcDbLinetypeTableRecord
  2
ACAD_ISO06W100
 70
0
  3
ISO long-dash triple-dot ____ ... ____ ... ____
 72
65
 73
8
 40
36.0000000000000071
 49
24.0
 74
0
 49
-2.9500000000000002
 74
0
 49
0.1
 74
0
 49
-2.9000000000000004
 74
0
 49
0.1
 74
0
 49
-2.9000000000000004
 74
0
 49
0.1
 74
0
 49
-2.9500000000000002
 74
0
  0
LTYPE
  5
43
100
AcDbSymbolTableRecord
100
AcDbLinetypeTableRecord
  2
CENTER
 70
0
  3
Center ____ _ ____ _ ____ _ ____ _ ____ _ ____
 72
65
 73
4
 40
50.8000000000000043
 49
31.75
 74
0
 49
-6.3499999999999996
 74
0
 49
6.3499999999999996
 74
0
 49
-6.3499999999999996
 74
0
  0
LTYPE
  5
44
100
AcDbSymbolTableRecord
100
AcDbLinetypeTableRecord
  2
DOTX2
 70
0
  3
Dot (2x) .  .  .  .  .  .  .  .  .  .  .  .  .  .
 72
65
 73
2
 40
12.6999999999999993
 49
0.1
 74
0
 49
-12.5999999999999996
 74
0
  0
LTYPE
  5
45
100
AcDbSymbolTableRecord
100
AcDbLinetypeTableRecord
  2
PHANTOM
 70
0
  3
Phantom ______  __  __  ______  __  __  ______ 
 72
65
 73
6
 40
63.5000000000000071
 49
31.75
 74
0
 49
-6.3499999999999996
 74
0
 49
6.3499999999999996
 74
0
 49
-6.3499999999999996
 74
0
 49
6.3499999999999996
 74
0
 49
-6.3499999999999996
 74
0
  0
LTYPE
  5
46
100
AcDbSymbolTableRecord
100
AcDbLinetypeTableRecord
  2
ACAD_ISO08W100
 70
0
  3
ISO long-dash short-dash ____ __ ____ __ ____ _
 72
65
 73
4
 40
36.0
 49
24.0
 74
0
 49
-3.0
 74
0
 49
6.0
 74
0
 49
-3.0
 74
0
  0
LTYPE
  5
47
100
AcDbSymbolTableRecord
100
AcDbLinetypeTableRecord
  2
DASHEDX2
 70
0
  3
Dashed (2x) ____  ____  ____  ____  ____  ___
 72
65
 73
2
 40
38.0999999999999943
 49
25.3999999999999986
 74
0
 49
-12.6999999999999993
 74
0
  0
LTYPE
  5
48
100
AcDbSymbolTableRecord
100
AcDbLinetypeTableRecord
  2
ACAD_ISO02W100
 70
0
  3
ISO dash __ __ __ __ __ __ __ __ __ __ __ __ __
 72
65
 73
2
 40
15.0
 49
12.0
 74
0
 49
-3.0
 74
0
  0
LTYPE
  5
49
100
AcDbSymbolTableRecord
100
AcDbLinetypeTableRecord
  2
PHANTOM2
 70
0
  3
Phantom (.5x) ___ _ _ ___ _ _ ___ _ _ ___ _ _
 72
65
 73
6
 40
31.7500000000000036
 49
15.875
 74
0
 49
-3.1749999999999998
 74
0
 49
3.1749999999999998
 74
0
 49
-3.1749999999999998
 74
0
 49
3.1749999999999998
 74
0
 49
-3.1749999999999998
 74
0
  0
LTYPE
  5
4A
100
AcDbSymbolTableRecord
100
AcDbLinetypeTableRecord
  2
DASHED2
 70
0
  3
Dashed (.5x) _ _ _ _ _ _ _ _ _ _ _ _ _ _ _ _ _ 
 72
65
 73
2
 40
9.5249999999999986
 49
6.3499999999999996
 74
0
 49
-3.1749999999999998
 74
0
  0
LTYPE
  5
4B
100
AcDbSymbolTableRecord
100
AcDbLinetypeTableRecord
  2
ACAD_ISO09W100
 70
0
  3
ISO long-dash double-short-dash ____ __ __ ____
 72
65
 73
6
 40
45.0
 49
24.0
 74
0
 49
-3.0
 74
0
 49
6.0
 74
0
 49
-3.0
 74
0
 49
6.0
 74
0
 49
-3.0
 74
0
  0
LTYPE
  5
4C
100
AcDbSymbolTableRecord
100
AcDbLinetypeTableRecord
  2
ACAD_ISO13W100
 70
0
  3
ISO double-dash double-dot __ __ . . __ __ . . _
 72
65
 73
8
 40
36.0000000000000071
 49
12.0
 74
0
 49
-3.0
 74
0
 49
12.0
 74
0
 49
-2.9500000000000002
 74
0
 49
0.1
 74
0
 49
-2.9000000000000004
 74
0
 49
0.1
 74
0
 49
-2.9500000000000002
 74
0
  0
LTYPE
  5
4D
100
AcDbSymbolTableRecord
100
AcDbLinetypeTableRecord
  2
DOT2
 70
0
  3
Dot (.5x) ........................................
 72
65
 73
2
 40
3.1749999999999998
 49
0.1
 74
0
 49
-3.0749999999999997
 74
0
  0
LTYPE
  5
4E
100
AcDbSymbolTableRecord
100
AcDbLinetypeTableRecord
  2
DASHED
 70
0
  3
Dashed __ __ __ __ __ __ __ __ __ __ __ __ __ _
 72
65
 73
2
 40
19.0499999999999972
 49
12.6999999999999993
 74
0
 49
-6.3499999999999996
 74
0
  0
LTYPE
  5
4F
100
AcDbSymbolTableRecord
100
AcDbLinetypeTableRecord
  2
ACAD_ISO14W100
 70
0
  3
ISO dash triple-dot __ . . . __ . . . __ . . . _
 72
65
 73
8
 40
24.0000000000000036
 49
12.0
 74
0
 49
-2.9500000000000002
 74
0
 49
0.1
 74
0
 49
-2.9000000000000004
 74
0
 49
0.1
 74
0
 49
-2.9000000000000004
 74
0
 49
0.1
 74
0
 49
-2.9500000000000002
 74
0
  0
LTYPE
  5
15
100
AcDbSymbolTableRecord
100
AcDbLinetypeTableRecord
  2
BYLAYER
 70
0
  3

 72
65
 73
0
 40
0.0
  0
LTYPE
  5
50
100
AcDbSymbolTableRecord
100
AcDbLinetypeTableRecord
  2
PHANTOMX2
 70
0
  3
Phantom (2x) ____________    ____    ____   _
 72
65
 73
6
 40
127.0000000000000142
 49
63.5
 74
0
 49
-12.6999999999999993
 74
0
 49
12.6999999999999993
 74
0
 49
-12.6999999999999993
 74
0
 49
12.6999999999999993
 74
0
 49
-12.6999999999999993
 74
0
  0
LTYPE
  5
14
100
AcDbSymbolTableRecord
100
AcDbLinetypeTableRecord
  2
BYBLOCK
 70
0
  3

 72
65
 73
0
 40
0.0
  0
LTYPE
  5
51
100
AcDbSymbolTableRecord
100
AcDbLinetypeTableRecord
  2
DIVIDEX2
 70
0
  3
Divide (2x) ________  .  .  ________  .  .  _
 72
65
 73
6
 40
63.5
 49
25.3999999999999986
 74
0
 49
-12.6499999999999986
 74
0
 49
0.1
 74
0
 49
-12.5999999999999979
 74
0
 49
0.1
 74
0
 49
-12.6499999999999986
 74
0
  0
LTYPE
  5
52
100
AcDbSymbolTableRecord
100
AcDbLinetypeTableRecord
  2
BORDER
 70
0
  3
Border __ __ . __ __ . __ __ . __ __ . __ __ .
 72
65
 73
6
 40
44.4499999999999957
 49
12.6999999999999993
 74
0
 49
-6.3499999999999996
 74
0
 49
12.6999999999999993
 74
0
 49
-6.2999999999999998
 74
0
 49
0.1
 74
0
 49
-6.2999999999999998
 74
0
  0
LTYPE
  5
53
100
AcDbSymbolTableRecord
100
AcDbLinetypeTableRecord
  2
DIVIDE2
 70
0
  3
Divide (.5x) __..__..__..__..__..__..__..__.._
 72
65
 73
6
 40
15.8749999999999982
 49
6.3499999999999996
 74
0
 49
-3.125
 74
0
 49
0.1
 74
0
 49
-3.0750000000000002
 74
0
 49
0.1
 74
0
 49
-3.125
 74
0
  0
LTYPE
  5
54
100
AcDbSymbolTableRecord
100
AcDbLinetypeTableRecord
  2
DOT
 70
0
  3
Dot . . . . . . . . . . . . . . . . . . . . . . . .
 72
65
 73
2
 40
6.3499999999999996
 49
0.1
 74
0
 49
-6.25
 74
0
  0
LTYPE
  5
55
100
AcDbSymbolTableRecord
100
AcDbLinetypeTableRecord
  2
DASHDOT
 70
0
  3
Dash dot __ . __ . __ . __ . __ . __ . __ . __
 72
65
 73
4
 40
25.4000000000000021
 49
12.6999999999999993
 74
0
 49
-6.2999999999999998
 74
0
 49
0.1
 74
0
 49
-6.2999999999999998
 74
0
  0
LTYPE
  5
56
100
AcDbSymbolTableRecord
100
AcDbLinetypeTableRecord
  2
ACAD_ISO03W100
 70
0
  3
ISO dash space __    __    __    __    __    __
 72
65
 73
2
 40
30.0
 49
12.0
 74
0
 49
-18.0
 74
0
  0
ENDTAB
  0
TABLE
  2
LAYER
  5
2
100
AcDbSymbolTable
 70
6
  0
LAYER
  5
57
100
AcDbSymbolTableRecord
100
AcDbLayerTableRecord
  2
open layer
 70
0
 62
1
420
16711680
  6
Continuous
370
5
390
F
  0
LAYER
  5
58
100
AcDbSymbolTableRecord
100
AcDbLayerTableRecord
  2
poker
 70
1
 62
-54
420
8421376
  6
Continuous
370
25
390
F
  0
LAYER
  5
59
100
AcDbSymbolTableRecord
100
AcDbLayerTableRecord
  2
building
 70
1
 62
-211
420
16733695
  6
Continuous
370
25
390
F
  0
LAYER
  5
5A
100
AcDbSymbolTableRecord
100
AcDbLayerTableRecord
  2
bottom
 70
0
 62
30
420
16744192
  6
Continuous
370
5
390
F
  0
LAYER
  5
10
100
AcDbSymbolTableRecord
100
AcDbLayerTableRecord
  2
0
 70
0
 62
7
420
16777215
  6
Continuous
370
5
390
F
  0
LAYER
  5
5B
100
AcDbSymbolTableRecord
100
AcDbLayerTableRecord
  2
top
 70
0
 62
4
420
65535
  6
Continuous
370
5
390
F
  0
ENDTAB
  0
TABLE
  2
STYLE
  5
3
100
AcDbSymbolTable
 70
1
  0
STYLE
  5
5C
100
AcDbSymbolTableRecord
100
AcDbTextStyleTableRecord
  2
Standard
 70
0
 40
0.0
 41
1.0
 50
0.0
 71
0
 42
2.5
  3

  4

1001
ACAD
1000
txt
1071
0
  0
ENDTAB
  0
TABLE
  2
VIEW
  5
6
100
AcDbSymbolTable
 70
0
  0
ENDTAB
  0
TABLE
  2
UCS
  5
7
100
AcDbSymbolTable
 70
0
  0
ENDTAB
  0
TABLE
  2
APPID
  5
9
100
AcDbSymbolTable
 70
1
  0
APPID
  5
12
100
AcDbSymbolTableRecord
100
AcDbRegAppTableRecord
  2
ACAD
 70
0
  0
APPID
  5
5D
100
AcDbSymbolTableRecord
100
AcDbRegAppTableRecord
  2
QCAD
 70
0
  0
ENDTAB
  0
TABLE
  2
DIMSTYLE
  5
A
100
AcDbSymbolTable
 70
1
100
AcDbDimStyleTable
 71
0
  0
DIMSTYLE
105
27
100
AcDbSymbolTableRecord
100
AcDbDimStyleTableRecord
  2
Standard
 41
0.18
 42
0.0625
 43
3.75
 44
0.18
 70
0
 73
0
 74
0
 77
1
 78
8
140
0.18
141
2.5
143
0.03937007874016
147
0.09
171
3
172
1
271
2
272
2
274
3
278
44
283
0
284
8
340
5C
  0
ENDTAB
  0
TABLE
  2
BLOCK_RECORD
  5
1
100
AcDbSymbolTable
 70
1
  0
BLOCK_RECORD
  5
1F
100
AcDbSymbolTableRecord
100
AcDbBlockTableRecord
  2
*Model_Space
340
22
  0
BLOCK_RECORD
  5
1B
100
AcDbSymbolTableRecord
100
AcDbBlockTableRecord
  2
*Paper_Space
340
1E
  0
BLOCK_RECORD
  5
23
100
AcDbSymbolTableRecord
100
AcDbBlockTableRecord
  2
*Paper_Space0
340
26
  0
ENDTAB
  0
ENDSEC
  0
SECTION
  2
BLOCKS
  0
BLOCK
  5
20
100
AcDbEntity
  8
0
100
AcDbBlockBegin
  2
*Model_Space
 70
0
 10
0.0
 20
0.0
 30
0.0
  3
*Model_Space
  1

  0
ENDBLK
  5
21
100
AcDbEntity
  8
0
100
AcDbBlockEnd
  0
BLOCK
  5
1C
100
AcDbEntity
 67
1
  8
0
100
AcDbBlockBegin
  2
*Paper_Space
 70
0
 10
0.0
 20
0.0
 30
0.0
  3
*Paper_Space
  1

  0
ENDBLK
  5
1D
100
AcDbEntity
 67
1
  8
0
100
AcDbBlockEnd
  0
BLOCK
  5
24
100
AcDbEntity
  8
0
100
AcDbBlockBegin
  2
*Paper_Space0
 70
0
 10
0.0
 20
0.0
 30
0.0
  3
*Paper_Space0
  1

  0
ENDBLK
  5
25
100
AcDbEntity
  8
0
100
AcDbBlockEnd
  0
ENDSEC
  0
SECTION
  2
ENTITIES
  0
LINE
  5
5E
100
AcDbEntity
  8
poker
 62
256
370
-1
 48
1.0
  6
BYLAYER
100
AcDbLine
 10
297.4003421389180062
 20
47.7628690000000091
 30
0.0
 11
297.4003421389180062
 21
12.0
 31
0.0
  0
LINE
  5
5F
100
AcDbEntity
  8
poker
 62
256
370
-1
 48
1.0
  6
BYLAYER
100
AcDbLine
 10
297.4003421389180062
 20
12.0
 30
0.0
 11
12.0240487389179336
 21
12.0
 31
0.0
  0
LINE
  5
60
100
AcDbEntity
  8
poker
 62
256
370
-1
 48
1.0
  6
BYLAYER
100
AcDbLine
 10
12.0240487389179336
 20
12.0
 30
0.0
 11
12.0240487389179336
 21
47.7628690000000091
 31
0.0
  0
LINE
  5
61
100
AcDbEntity
  8
poker
 62
256
370
-1
 48
1.0
  6
BYLAYER
100
AcDbLine
 10
12.0240487389179336
 20
52.7638689999999997
 30
0.0
 11
12.0240487389179336
 21
106.9261690000000158
 31
0.0
  0
LINE
  5
62
100
AcDbEntity
  8
poker
 62
256
370
-1
 48
1.0
  6
BYLAYER
100
AcDbLine
 10
12.0240487389179336
 20
106.9261690000000158
 30
0.0
 11
297.4003421389180062
 21
106.9261690000000158
 31
0.0
  0
LINE
  5
63
100
AcDbEntity
  8
poker
 62
256
370
-1
 48
1.0
  6
BYLAYER
100
AcDbLine
 10
297.4003421389180062
 20
106.9261690000000158
 30
0.0
 11
297.4003421389180062
 21
52.7638689999999997
 31
0.0
  0
LINE
  5
64
100
AcDbEntity
  8
0
 62
0
370
-1
 48
1.0
  6
BYLAYER
100
AcDbLine
 10
100.8865021389179333
 20
23.662069000000006
 30
0.0
 11
100.8865021389179333
 21
26.8935690000000065
 31
0.0
  0
LINE
  5
65
100
AcDbEntity
  8
0
 62
0
370
-1
 48
1.0
  6
BYLAYER
100
AcDbLine
 10
100.8865021389179333
 20
26.8935690000000065
 30
0.0
 11
94.236302138917921
 21
26.8935690000000065
 31
0.0
  0
LINE
  5
66
100
AcDbEntity
  8
0
 62
0
370
-1
 48
1.0
  6
BYLAYER
100
AcDbLine
 10
95.9105021389179342
 20
14.5931690000000067
 30
0.0
 11
95.9105021389179342
 21
13.3928690000000046
 31
0.0
  0
LINE
  5
67
100
AcDbEntity
  8
0
 62
0
370
-1
 48
1.0
  6
BYLAYER
100
AcDbLine
 10
95.9105021389179342
 20
13.3928690000000046
 30
0.0
 11
99.2115021389179219
 21
13.3928690000000046
 31
0.0
  0
LINE
  5
68
100
AcDbEntity
  8
0
 62
0
370
-1
 48
1.0
  6
BYLAYER
100
AcDbLine
 10
99.2115021389179219
 20
13.3928690000000046
 30
0.0
 11
99.2115021389179219
 21
14.5931690000000067
 31
0.0
  0
LINE
  5
69
100
AcDbEntity
  8
0
 62
0
370
-1
 48
1.0
  6
BYLAYER
100
AcDbLine
 10
99.2115021389179219
 20
14.5931690000000067
 30
0.0
 11
100.8865021389179333
 21
14.5931690000000067
 31
0.0
  0
LINE
  5
6A
100
AcDbEntity
  8
0
 62
0
370
-1
 48
1.0
  6
BYLAYER
100
AcDbLine
 10
100.8865021389179333
 20
14.5931690000000067
 30
0.0
 11
100.8865021389179333
 21
19.0635690000000046
 31
0.0
  0
LINE
  5
6B
100
AcDbEntity
  8
0
 62
0
370
-1
 48
1.0
  6
BYLAYER
100
AcDbLine
 10
147.7115021389179219
 20
14.3630690000000065
 30
0.0
 11
161.7105021389179171
 21
14.3630690000000065
 31
0.0
  0
LINE
  5
6C
100
AcDbEntity
  8
0
 62
0
370
-1
 48
1.0
  6
BYLAYER
100
AcDbLine
 10
161.7105021389179171
 20
14.3630690000000065
 30
0.0
 11
161.7105021389179171
 21
15.3621690000000051
 31
0.0
  0
LINE
  5
6D
100
AcDbEntity
  8
0
 62
0
370
-1
 48
1.0
  6
BYLAYER
100
AcDbLine
 10
161.7105021389179171
 20
15.3621690000000051
 30
0.0
 11
162.5115021389179333
 21
15.3621690000000051
 31
0.0
  0
LINE
  5
6E
100
AcDbEntity
  8
0
 62
0
370
-1
 48
1.0
  6
BYLAYER
100
AcDbLine
 10
162.5115021389179333
 20
15.3621690000000051
 30
0.0
 11
162.5115021389179333
 21
18.4626690000000053
 31
0.0
  0
LINE
  5
6F
100
AcDbEntity
  8
0
 62
0
370
-1
 48
1.0
  6
BYLAYER
100
AcDbLine
 10
162.5115021389179333
 20
18.4626690000000053
 30
0.0
 11
161.7105021389179171
 21
18.4626690000000053
 31
0.0
  0
LINE
  5
70
100
AcDbEntity
  8
0
 62
0
370
-1
 48
1.0
  6
BYLAYER
100
AcDbLine
 10
161.7105021389179171
 20
18.4626690000000053
 30
0.0
 11
161.7105021389179171
 21
19.0635690000000046
 31
0.0
  0
LINE
  5
71
100
AcDbEntity
  8
0
 62
0
370
-1
 48
1.0
  6
BYLAYER
100
AcDbLine
 10
210.2105021389179171
 20
13.3928690000000046
 30
0.0
 11
213.5115021389179333
 21
13.3928690000000046
 31
0.0
  0
LINE
  5
72
100
AcDbEntity
  8
0
 62
0
370
-1
 48
1.0
  6
BYLAYER
100
AcDbLine
 10
161.7105021389179171
 20
23.662069000000006
 30
0.0
 11
161.7105021389179171
 21
24.2642690000000059
 31
0.0
  0
LINE
  5
73
100
AcDbEntity
  8
0
 62
0
370
-1
 48
1.0
  6
BYLAYER
100
AcDbLine
 10
161.7105021389179171
 20
24.2642690000000059
 30
0.0
 11
162.5115021389179333
 21
24.2642690000000059
 31
0.0
  0
LINE
  5
74
100
AcDbEntity
  8
0
 62
0
370
-1
 48
1.0
  6
BYLAYER
100
AcDbLine
 10
162.5115021389179333
 20
24.2642690000000059
 30
0.0
 11
162.5115021389179333
 21
27.3634690000000056
 31
0.0
  0
LINE
  5
75
100
AcDbEntity
  8
0
 62
0
370
-1
 48
1.0
  6
BYLAYER
100
AcDbLine
 10
162.5115021389179333
 20
27.3634690000000056
 30
0.0
 11
161.7105021389179171
 21
27.3634690000000056
 31
0.0
  0
LINE
  5
76
100
AcDbEntity
  8
0
 62
0
370
-1
 48
1.0
  6
BYLAYER
100
AcDbLine
 10
161.7105021389179171
 20
27.3634690000000056
 30
0.0
 11
161.7105021389179171
 21
28.3638690000000082
 31
0.0
  0
LINE
  5
77
100
AcDbEntity
  8
0
 62
0
370
-1
 48
1.0
  6
BYLAYER
100
AcDbLine
 10
161.7105021389179171
 20
28.3638690000000082
 30
0.0
 11
147.7115021389179219
 21
28.3638690000000082
 31
0.0
  0
LINE
  5
78
100
AcDbEntity
  8
0
 62
0
370
-1
 48
1.0
  6
BYLAYER
100
AcDbLine
 10
42.9361021389179385
 20
14.3630690000000065
 30
0.0
 11
56.9357021389179323
 21
14.3630690000000065
 31
0.0
  0
LINE
  5
79
100
AcDbEntity
  8
0
 62
0
370
-1
 48
1.0
  6
BYLAYER
100
AcDbLine
 10
56.9357021389179323
 20
14.3630690000000065
 30
0.0
 11
56.9357021389179323
 21
15.3621690000000051
 31
0.0
  0
LINE
  5
7A
100
AcDbEntity
  8
0
 62
0
370
-1
 48
1.0
  6
BYLAYER
100
AcDbLine
 10
56.9357021389179323
 20
15.3621690000000051
 30
0.0
 11
57.7361021389179356
 21
15.3621690000000051
 31
0.0
  0
LINE
  5
7B
100
AcDbEntity
  8
0
 62
0
370
-1
 48
1.0
  6
BYLAYER
100
AcDbLine
 10
57.7361021389179356
 20
15.3621690000000051
 30
0.0
 11
57.7361021389179356
 21
18.4626690000000053
 31
0.0
  0
LINE
  5
7C
100
AcDbEntity
  8
0
 62
0
370
-1
 48
1.0
  6
BYLAYER
100
AcDbLine
 10
57.7361021389179356
 20
18.4626690000000053
 30
0.0
 11
56.9357021389179323
 21
18.4626690000000053
 31
0.0
  0
LINE
  5
7D
100
AcDbEntity
  8
0
 62
0
370
-1
 48
1.0
  6
BYLAYER
100
AcDbLine
 10
56.9357021389179323
 20
18.4626690000000053
 30
0.0
 11
56.9357021389179323
 21
24.2642690000000059
 31
0.0
  0
LINE
  5
7E
100
AcDbEntity
  8
0
 62
0
370
-1
 48
1.0
  6
BYLAYER
100
AcDbLine
 10
56.9357021389179323
 20
24.2642690000000059
 30
0.0
 11
57.7361021389179356
 21
24.2642690000000059
 31
0.0
  0
LINE
  5
7F
100
AcDbEntity
  8
0
 62
0
370
-1
 48
1.0
  6
BYLAYER
100
AcDbLine
 10
57.7361021389179356
 20
24.2642690000000059
 30
0.0
 11
57.7361021389179356
 21
27.3634690000000056
 31
0.0
  0
LINE
  5
80
100
AcDbEntity
  8
0
 62
0
370
-1
 48
1.0
  6
BYLAYER
100
AcDbLine
 10
57.7361021389179356
 20
27.3634690000000056
 30
0.0
 11
56.9357021389179323
 21
27.3634690000000056
 31
0.0
  0
LINE
  5
81
100
AcDbEntity
  8
0
 62
0
370
-1
 48
1.0
  6
BYLAYER
100
AcDbLine
 10
56.9357021389179323
 20
27.3634690000000056
 30
0.0
 11
56.9357021389179323
 21
28.3638690000000082
 31
0.0
  0
LINE
  5
82
100
AcDbEntity
  8
0
 62
0
370
-1
 48
1.0
  6
BYLAYER
100
AcDbLine
 10
56.9357021389179323
 20
28.3638690000000082
 30
0.0
 11
42.9361021389179385
 21
28.3638690000000082
 31
0.0
  0
LINE
  5
83
100
AcDbEntity
  8
0
 62
0
370
-1
 48
1.0
  6
BYLAYER
100
AcDbLine
 10
66.7486021389179314
 20
14.3630690000000065
 30
0.0
 11
80.7482021389179465
 21
14.3630690000000065
 31
0.0
  0
LINE
  5
84
100
AcDbEntity
  8
0
 62
0
370
-1
 48
1.0
  6
BYLAYER
100
AcDbLine
 10
80.7482021389179465
 20
14.3630690000000065
 30
0.0
 11
80.7482021389179465
 21
15.3621690000000051
 31
0.0
  0
LINE
  5
85
100
AcDbEntity
  8
0
 62
0
370
-1
 48
1.0
  6
BYLAYER
100
AcDbLine
 10
80.7482021389179465
 20
15.3621690000000051
 30
0.0
 11
81.5486021389179427
 21
15.3621690000000051
 31
0.0
  0
LINE
  5
86
100
AcDbEntity
  8
0
 62
0
370
-1
 48
1.0
  6
BYLAYER
100
AcDbLine
 10
81.5486021389179427
 20
15.3621690000000051
 30
0.0
 11
81.5486021389179427
 21
18.4626690000000053
 31
0.0
  0
LINE
  5
87
100
AcDbEntity
  8
0
 62
0
370
-1
 48
1.0
  6
BYLAYER
100
AcDbLine
 10
81.5486021389179427
 20
18.4626690000000053
 30
0.0
 11
80.7482021389179465
 21
18.4626690000000053
 31
0.0
  0
LINE
  5
88
100
AcDbEntity
  8
0
 62
0
370
-1
 48
1.0
  6
BYLAYER
100
AcDbLine
 10
80.7482021389179465
 20
18.4626690000000053
 30
0.0
 11
80.7482021389179465
 21
24.2642690000000059
 31
0.0
  0
LINE
  5
89
100
AcDbEntity
  8
0
 62
0
370
-1
 48
1.0
  6
BYLAYER
100
AcDbLine
 10
80.7482021389179465
 20
24.2642690000000059
 30
0.0
 11
81.5486021389179427
 21
24.2642690000000059
 31
0.0
  0
LINE
  5
8A
100
AcDbEntity
  8
0
 62
0
370
-1
 48
1.0
  6
BYLAYER
100
AcDbLine
 10
81.5486021389179427
 20
24.2642690000000059
 30
0.0
 11
81.5486021389179427
 21
27.3634690000000056
 31
0.0
  0
LINE
  5
8B
100
AcDbEntity
  8
0
 62
0
370
-1
 48
1.0
  6
BYLAYER
100
AcDbLine
 10
81.5486021389179427
 20
27.3634690000000056
 30
0.0
 11
80.7482021389179465
 21
27.3634690000000056
 31
0.0
  0
LINE
  5
8C
100
AcDbEntity
  8
0
 62
0
370
-1
 48
1.0
  6
BYLAYER
100
AcDbLine
 10
80.7482021389179465
 20
27.3634690000000056
 30
0.0
 11
80.7482021389179465
 21
28.3638690000000082
 31
0.0
  0
LINE
  5
8D
100
AcDbEntity
  8
0
 62
0
370
-1
 48
1.0
  6
BYLAYER
100
AcDbLine
 10
80.7482021389179465
 20
28.3638690000000082
 30
0.0
 11
66.7486021389179314
 21
28.3638690000000082
 31
0.0
  0
LINE
  5
8E
100
AcDbEntity
  8
0
 62
0
370
-1
 48
1.0
  6
BYLAYER
100
AcDbLine
 10
228.6735021389179394
 20
28.3638690000000082
 30
0.0
 11
228.6735021389179394
 21
27.3634690000000056
 31
0.0
  0
LINE
  5
8F
100
AcDbEntity
  8
0
 62
0
370
-1
 48
1.0
  6
BYLAYER
100
AcDbLine
 10
228.6735021389179394
 20
27.3634690000000056
 30
0.0
 11
227.8735021389179281
 21
27.3634690000000056
 31
0.0
  0
LINE
  5
90
100
AcDbEntity
  8
0
 62
0
370
-1
 48
1.0
  6
BYLAYER
100
AcDbLine
 10
227.8735021389179281
 20
27.3634690000000056
 30
0.0
 11
227.8735021389179281
 21
24.2642690000000059
 31
0.0
  0
LINE
  5
91
100
AcDbEntity
  8
0
 62
0
370
-1
 48
1.0
  6
BYLAYER
100
AcDbLine
 10
227.8735021389179281
 20
24.2642690000000059
 30
0.0
 11
228.6735021389179394
 21
24.2642690000000059
 31
0.0
  0
LINE
  5
92
100
AcDbEntity
  8
0
 62
0
370
-1
 48
1.0
  6
BYLAYER
100
AcDbLine
 10
228.6735021389179394
 20
24.2642690000000059
 30
0.0
 11
228.6735021389179394
 21
18.4626690000000053
 31
0.0
  0
LINE
  5
93
100
AcDbEntity
  8
0
 62
0
370
-1
 48
1.0
  6
BYLAYER
100
AcDbLine
 10
228.6735021389179394
 20
18.4626690000000053
 30
0.0
 11
227.8735021389179281
 21
18.4626690000000053
 31
0.0
  0
LINE
  5
94
100
AcDbEntity
  8
0
 62
0
370
-1
 48
1.0
  6
BYLAYER
100
AcDbLine
 10
227.8735021389179281
 20
18.4626690000000053
 30
0.0
 11
227.8735021389179281
 21
15.3621690000000051
 31
0.0
  0
LINE
  5
95
100
AcDbEntity
  8
0
 62
0
370
-1
 48
1.0
  6
BYLAYER
100
AcDbLine
 10
227.8735021389179281
 20
15.3621690000000051
 30
0.0
 11
228.6735021389179394
 21
15.3621690000000051
 31
0.0
  0
LINE
  5
96
100
AcDbEntity
  8
0
 62
0
370
-1
 48
1.0
  6
BYLAYER
100
AcDbLine
 10
228.6735021389179394
 20
15.3621690000000051
 30
0.0
 11
228.6735021389179394
 21
14.3630690000000065
 31
0.0
  0
LINE
  5
97
100
AcDbEntity
  8
0
 62
0
370
-1
 48
1.0
  6
BYLAYER
100
AcDbLine
 10
228.6735021389179394
 20
14.3630690000000065
 30
0.0
 11
242.6735021389179394
 21
14.3630690000000065
 31
0.0
  0
LINE
  5
98
100
AcDbEntity
  8
0
 62
0
370
-1
 48
1.0
  6
BYLAYER
100
AcDbLine
 10
242.6735021389179394
 20
28.3638690000000082
 30
0.0
 11
228.6735021389179394
 21
28.3638690000000082
 31
0.0
  0
LINE
  5
99
100
AcDbEntity
  8
0
 62
0
370
-1
 48
1.0
  6
BYLAYER
100
AcDbLine
 10
26.2674021389179337
 20
47.4139690000000087
 30
0.0
 11
26.2674021389179337
 21
46.4134690000000063
 31
0.0
  0
LINE
  5
9A
100
AcDbEntity
  8
0
 62
0
370
-1
 48
1.0
  6
BYLAYER
100
AcDbLine
 10
26.2674021389179337
 20
46.4134690000000063
 30
0.0
 11
25.4668021389179344
 21
46.4134690000000063
 31
0.0
  0
LINE
  5
9B
100
AcDbEntity
  8
0
 62
0
370
-1
 48
1.0
  6
BYLAYER
100
AcDbLine
 10
25.4668021389179344
 20
46.4134690000000063
 30
0.0
 11
25.4668021389179344
 21
43.3143690000000063
 31
0.0
  0
LINE
  5
9C
100
AcDbEntity
  8
0
 62
0
370
-1
 48
1.0
  6
BYLAYER
100
AcDbLine
 10
25.4668021389179344
 20
43.3143690000000063
 30
0.0
 11
26.2674021389179337
 21
43.3143690000000063
 31
0.0
  0
LINE
  5
9D
100
AcDbEntity
  8
0
 62
0
370
-1
 48
1.0
  6
BYLAYER
100
AcDbLine
 10
26.2674021389179337
 20
43.3143690000000063
 30
0.0
 11
26.2674021389179337
 21
42.7121690000000029
 31
0.0
  0
LINE
  5
9E
100
AcDbEntity
  8
0
 62
0
370
-1
 48
1.0
  6
BYLAYER
100
AcDbLine
 10
26.2674021389179337
 20
42.7121690000000029
 30
0.0
 11
24.6923021389179347
 21
42.7121690000000029
 31
0.0
  0
LINE
  5
9F
100
AcDbEntity
  8
0
 62
0
370
-1
 48
1.0
  6
BYLAYER
100
AcDbLine
 10
24.6923021389179347
 20
42.7121690000000029
 30
0.0
 11
24.6923021389179347
 21
45.9435690000000037
 31
0.0
  0
LINE
  5
A0
100
AcDbEntity
  8
0
 62
0
370
-1
 48
1.0
  6
BYLAYER
100
AcDbLine
 10
24.6923021389179347
 20
45.9435690000000037
 30
0.0
 11
18.0419021389179335
 21
45.9435690000000037
 31
0.0
  0
LINE
  5
A1
100
AcDbEntity
  8
0
 62
0
370
-1
 48
1.0
  6
BYLAYER
100
AcDbLine
 10
18.0419021389179335
 20
45.9435690000000037
 30
0.0
 11
18.0419021389179335
 21
42.7121690000000029
 31
0.0
  0
LINE
  5
A2
100
AcDbEntity
  8
0
 62
0
370
-1
 48
1.0
  6
BYLAYER
100
AcDbLine
 10
18.0419021389179335
 20
42.7121690000000029
 30
0.0
 11
17.1669021389179335
 21
42.7121690000000029
 31
0.0
  0
LINE
  5
A3
100
AcDbEntity
  8
0
 62
0
370
-1
 48
1.0
  6
BYLAYER
100
AcDbLine
 10
17.1669021389179335
 20
42.7121690000000029
 30
0.0
 11
17.1669021389179335
 21
39.9117690000000067
 31
0.0
  0
LINE
  5
A4
100
AcDbEntity
  8
0
 62
0
370
-1
 48
1.0
  6
BYLAYER
100
AcDbLine
 10
17.1669021389179335
 20
39.9117690000000067
 30
0.0
 11
18.0419021389179335
 21
39.9117690000000067
 31
0.0
  0
LINE
  5
A5
100
AcDbEntity
  8
0
 62
0
370
-1
 48
1.0
  6
BYLAYER
100
AcDbLine
 10
18.0419021389179335
 20
39.9117690000000067
 30
0.0
 11
18.0419021389179335
 21
33.6432690000000036
 31
0.0
  0
LINE
  5
A6
100
AcDbEntity
  8
0
 62
0
370
-1
 48
1.0
  6
BYLAYER
100
AcDbLine
 10
18.0419021389179335
 20
33.6432690000000036
 30
0.0
 11
19.7176021389179361
 21
33.6432690000000036
 31
0.0
  0
LINE
  5
A7
100
AcDbEntity
  8
0
 62
0
370
-1
 48
1.0
  6
BYLAYER
100
AcDbLine
 10
19.7176021389179361
 20
33.6432690000000036
 30
0.0
 11
19.7176021389179361
 21
32.4427690000000055
 31
0.0
  0
LINE
  5
A8
100
AcDbEntity
  8
0
 62
0
370
-1
 48
1.0
  6
BYLAYER
100
AcDbLine
 10
19.7176021389179361
 20
32.4427690000000055
 30
0.0
 11
23.0166021389179356
 21
32.4427690000000055
 31
0.0
  0
LINE
  5
A9
100
AcDbEntity
  8
0
 62
0
370
-1
 48
1.0
  6
BYLAYER
100
AcDbLine
 10
23.0166021389179356
 20
32.4427690000000055
 30
0.0
 11
23.0166021389179356
 21
33.6432690000000036
 31
0.0
  0
LINE
  5
AA
100
AcDbEntity
  8
0
 62
0
370
-1
 48
1.0
  6
BYLAYER
100
AcDbLine
 10
23.0166021389179356
 20
33.6432690000000036
 30
0.0
 11
24.6923021389179347
 21
33.6432690000000036
 31
0.0
  0
LINE
  5
AB
100
AcDbEntity
  8
0
 62
0
370
-1
 48
1.0
  6
BYLAYER
100
AcDbLine
 10
24.6923021389179347
 20
33.6432690000000036
 30
0.0
 11
24.6923021389179347
 21
38.1122690000000048
 31
0.0
  0
LINE
  5
AC
100
AcDbEntity
  8
0
 62
0
370
-1
 48
1.0
  6
BYLAYER
100
AcDbLine
 10
24.6923021389179347
 20
38.1122690000000048
 30
0.0
 11
26.2674021389179337
 21
38.1122690000000048
 31
0.0
  0
LINE
  5
AD
100
AcDbEntity
  8
0
 62
0
370
-1
 48
1.0
  6
BYLAYER
100
AcDbLine
 10
26.2674021389179337
 20
38.1122690000000048
 30
0.0
 11
26.2674021389179337
 21
37.5125690000000063
 31
0.0
  0
LINE
  5
AE
100
AcDbEntity
  8
0
 62
0
370
-1
 48
1.0
  6
BYLAYER
100
AcDbLine
 10
26.2674021389179337
 20
37.5125690000000063
 30
0.0
 11
25.4668021389179344
 21
37.5125690000000063
 31
0.0
  0
LINE
  5
AF
100
AcDbEntity
  8
0
 62
0
370
-1
 48
1.0
  6
BYLAYER
100
AcDbLine
 10
25.4668021389179344
 20
37.5125690000000063
 30
0.0
 11
25.4668021389179344
 21
34.4119690000000062
 31
0.0
  0
LINE
  5
B0
100
AcDbEntity
  8
0
 62
0
370
-1
 48
1.0
  6
BYLAYER
100
AcDbLine
 10
25.4668021389179344
 20
34.4119690000000062
 30
0.0
 11
26.2674021389179337
 21
34.4119690000000062
 31
0.0
  0
LINE
  5
B1
100
AcDbEntity
  8
0
 62
0
370
-1
 48
1.0
  6
BYLAYER
100
AcDbLine
 10
26.2674021389179337
 20
34.4119690000000062
 30
0.0
 11
26.2674021389179337
 21
33.4129690000000039
 31
0.0
  0
LINE
  5
B2
100
AcDbEntity
  8
0
 62
0
370
-1
 48
1.0
  6
BYLAYER
100
AcDbLine
 10
26.2674021389179337
 20
33.4129690000000039
 30
0.0
 11
40.2669021389179349
 21
33.4129690000000039
 31
0.0
  0
LINE
  5
B3
100
AcDbEntity
  8
0
 62
0
370
-1
 48
1.0
  6
BYLAYER
100
AcDbLine
 10
40.2669021389179349
 20
33.4129690000000039
 30
0.0
 11
40.2669021389179349
 21
34.4119690000000062
 31
0.0
  0
LINE
  5
B4
100
AcDbEntity
  8
0
 62
0
370
-1
 48
1.0
  6
BYLAYER
100
AcDbLine
 10
40.2669021389179349
 20
34.4119690000000062
 30
0.0
 11
41.0674021389179345
 21
34.4119690000000062
 31
0.0
  0
LINE
  5
B5
100
AcDbEntity
  8
0
 62
0
370
-1
 48
1.0
  6
BYLAYER
100
AcDbLine
 10
41.0674021389179345
 20
34.4119690000000062
 30
0.0
 11
41.0674021389179345
 21
37.5125690000000063
 31
0.0
  0
LINE
  5
B6
100
AcDbEntity
  8
0
 62
0
370
-1
 48
1.0
  6
BYLAYER
100
AcDbLine
 10
41.0674021389179345
 20
37.5125690000000063
 30
0.0
 11
40.2669021389179349
 21
37.5125690000000063
 31
0.0
  0
LINE
  5
B7
100
AcDbEntity
  8
0
 62
0
370
-1
 48
1.0
  6
BYLAYER
100
AcDbLine
 10
40.2669021389179349
 20
37.5125690000000063
 30
0.0
 11
40.2669021389179349
 21
38.1122690000000048
 31
0.0
  0
LINE
  5
B8
100
AcDbEntity
  8
0
 62
0
370
-1
 48
1.0
  6
BYLAYER
100
AcDbLine
 10
40.2669021389179349
 20
38.1122690000000048
 30
0.0
 11
41.8421021389179373
 21
38.1122690000000048
 31
0.0
  0
LINE
  5
B9
100
AcDbEntity
  8
0
 62
0
370
-1
 48
1.0
  6
BYLAYER
100
AcDbLine
 10
41.8421021389179373
 20
38.1122690000000048
 30
0.0
 11
41.8421021389179373
 21
33.6432690000000036
 31
0.0
  0
LINE
  5
BA
100
AcDbEntity
  8
0
 62
0
370
-1
 48
1.0
  6
BYLAYER
100
AcDbLine
 10
41.8421021389179373
 20
33.6432690000000036
 30
0.0
 11
43.5178021389179364
 21
33.6432690000000036
 31
0.0
  0
LINE
  5
BB
100
AcDbEntity
  8
0
 62
0
370
-1
 48
1.0
  6
BYLAYER
100
AcDbLine
 10
43.5178021389179364
 20
33.6432690000000036
 30
0.0
 11
43.5178021389179364
 21
32.4427690000000055
 31
0.0
  0
LINE
  5
BC
100
AcDbEntity
  8
0
 62
0
370
-1
 48
1.0
  6
BYLAYER
100
AcDbLine
 10
43.5178021389179364
 20
32.4427690000000055
 30
0.0
 11
46.8166021389179363
 21
32.4427690000000055
 31
0.0
  0
LINE
  5
BD
100
AcDbEntity
  8
0
 62
0
370
-1
 48
1.0
  6
BYLAYER
100
AcDbLine
 10
46.8166021389179363
 20
32.4427690000000055
 30
0.0
 11
46.8166021389179363
 21
33.6432690000000036
 31
0.0
  0
LINE
  5
BE
100
AcDbEntity
  8
0
 62
0
370
-1
 48
1.0
  6
BYLAYER
100
AcDbLine
 10
46.8166021389179363
 20
33.6432690000000036
 30
0.0
 11
48.4923021389179354
 21
33.6432690000000036
 31
0.0
  0
LINE
  5
BF
100
AcDbEntity
  8
0
 62
0
370
-1
 48
1.0
  6
BYLAYER
100
AcDbLine
 10
48.4923021389179354
 20
33.6432690000000036
 30
0.0
 11
48.4923021389179354
 21
39.9117690000000067
 31
0.0
  0
LINE
  5
C0
100
AcDbEntity
  8
0
 62
0
370
-1
 48
1.0
  6
BYLAYER
100
AcDbLine
 10
48.4923021389179354
 20
39.9117690000000067
 30
0.0
 11
49.3675021389179349
 21
39.9117690000000067
 31
0.0
  0
LINE
  5
C1
100
AcDbEntity
  8
0
 62
0
370
-1
 48
1.0
  6
BYLAYER
100
AcDbLine
 10
49.3675021389179349
 20
39.9117690000000067
 30
0.0
 11
49.3675021389179349
 21
42.7121690000000029
 31
0.0
  0
LINE
  5
C2
100
AcDbEntity
  8
0
 62
0
370
-1
 48
1.0
  6
BYLAYER
100
AcDbLine
 10
49.3675021389179349
 20
42.7121690000000029
 30
0.0
 11
48.4923021389179354
 21
42.7121690000000029
 31
0.0
  0
LINE
  5
C3
100
AcDbEntity
  8
0
 62
0
370
-1
 48
1.0
  6
BYLAYER
100
AcDbLine
 10
48.4923021389179354
 20
42.7121690000000029
 30
0.0
 11
48.4923021389179354
 21
45.9435690000000037
 31
0.0
  0
LINE
  5
C4
100
AcDbEntity
  8
0
 62
0
370
-1
 48
1.0
  6
BYLAYER
100
AcDbLine
 10
48.4923021389179354
 20
45.9435690000000037
 30
0.0
 11
41.8421021389179373
 21
45.9435690000000037
 31
0.0
  0
LINE
  5
C5
100
AcDbEntity
  8
0
 62
0
370
-1
 48
1.0
  6
BYLAYER
100
AcDbLine
 10
41.8421021389179373
 20
45.9435690000000037
 30
0.0
 11
41.8421021389179373
 21
42.7121690000000029
 31
0.0
  0
LINE
  5
C6
100
AcDbEntity
  8
0
 62
0
370
-1
 48
1.0
  6
BYLAYER
100
AcDbLine
 10
41.8421021389179373
 20
42.7121690000000029
 30
0.0
 11
40.2669021389179349
 21
42.7121690000000029
 31
0.0
  0
LINE
  5
C7
100
AcDbEntity
  8
0
 62
0
370
-1
 48
1.0
  6
BYLAYER
100
AcDbLine
 10
40.2669021389179349
 20
42.7121690000000029
 30
0.0
 11
40.2669021389179349
 21
43.3143690000000063
 31
0.0
  0
LINE
  5
C8
100
AcDbEntity
  8
0
 62
0
370
-1
 48
1.0
  6
BYLAYER
100
AcDbLine
 10
40.2669021389179349
 20
43.3143690000000063
 30
0.0
 11
41.0674021389179345
 21
43.3143690000000063
 31
0.0
  0
LINE
  5
C9
100
AcDbEntity
  8
0
 62
0
370
-1
 48
1.0
  6
BYLAYER
100
AcDbLine
 10
41.0674021389179345
 20
43.3143690000000063
 30
0.0
 11
41.0674021389179345
 21
46.4134690000000063
 31
0.0
  0
LINE
  5
CA
100
AcDbEntity
  8
0
 62
0
370
-1
 48
1.0
  6
BYLAYER
100
AcDbLine
 10
41.0674021389179345
 20
46.4134690000000063
 30
0.0
 11
40.2669021389179349
 21
46.4134690000000063
 31
0.0
  0
LINE
  5
CB
100
AcDbEntity
  8
0
 62
0
370
-1
 48
1.0
  6
BYLAYER
100
AcDbLine
 10
40.2669021389179349
 20
46.4134690000000063
 30
0.0
 11
40.2669021389179349
 21
47.4139690000000087
 31
0.0
  0
LINE
  5
CC
100
AcDbEntity
  8
0
 62
0
370
-1
 48
1.0
  6
BYLAYER
100
AcDbLine
 10
40.2669021389179349
 20
47.4139690000000087
 30
0.0
 11
26.2674021389179337
 21
47.4139690000000087
 31
0.0
  0
LINE
  5
CD
100
AcDbEntity
  8
0
 62
0
370
-1
 48
1.0
  6
BYLAYER
100
AcDbLine
 10
57.2236021389179328
 20
47.4139690000000087
 30
0.0
 11
57.2236021389179328
 21
46.4134690000000063
 31
0.0
  0
LINE
  5
CE
100
AcDbEntity
  8
0
 62
0
370
-1
 48
1.0
  6
BYLAYER
100
AcDbLine
 10
57.2236021389179328
 20
46.4134690000000063
 30
0.0
 11
56.4231021389179332
 21
46.4134690000000063
 31
0.0
  0
LINE
  5
CF
100
AcDbEntity
  8
0
 62
0
370
-1
 48
1.0
  6
BYLAYER
100
AcDbLine
 10
56.4231021389179332
 20
46.4134690000000063
 30
0.0
 11
56.4231021389179332
 21
43.3143690000000063
 31
0.0
  0
LINE
  5
D0
100
AcDbEntity
  8
0
 62
0
370
-1
 48
1.0
  6
BYLAYER
100
AcDbLine
 10
56.4231021389179332
 20
43.3143690000000063
 30
0.0
 11
57.2236021389179328
 21
43.3143690000000063
 31
0.0
  0
LINE
  5
D1
100
AcDbEntity
  8
0
 62
0
370
-1
 48
1.0
  6
BYLAYER
100
AcDbLine
 10
57.2236021389179328
 20
43.3143690000000063
 30
0.0
 11
57.2236021389179328
 21
37.5125690000000063
 31
0.0
  0
LINE
  5
D2
100
AcDbEntity
  8
0
 62
0
370
-1
 48
1.0
  6
BYLAYER
100
AcDbLine
 10
57.2236021389179328
 20
37.5125690000000063
 30
0.0
 11
56.4231021389179332
 21
37.5125690000000063
 31
0.0
  0
LINE
  5
D3
100
AcDbEntity
  8
0
 62
0
370
-1
 48
1.0
  6
BYLAYER
100
AcDbLine
 10
56.4231021389179332
 20
37.5125690000000063
 30
0.0
 11
56.4231021389179332
 21
34.4119690000000062
 31
0.0
  0
LINE
  5
D4
100
AcDbEntity
  8
0
 62
0
370
-1
 48
1.0
  6
BYLAYER
100
AcDbLine
 10
56.4231021389179332
 20
34.4119690000000062
 30
0.0
 11
57.2236021389179328
 21
34.4119690000000062
 31
0.0
  0
LINE
  5
D5
100
AcDbEntity
  8
0
 62
0
370
-1
 48
1.0
  6
BYLAYER
100
AcDbLine
 10
57.2236021389179328
 20
34.4119690000000062
 30
0.0
 11
57.2236021389179328
 21
33.4129690000000039
 31
0.0
  0
LINE
  5
D6
100
AcDbEntity
  8
0
 62
0
370
-1
 48
1.0
  6
BYLAYER
100
AcDbLine
 10
57.2236021389179328
 20
33.4129690000000039
 30
0.0
 11
71.2232021389179408
 21
33.4129690000000039
 31
0.0
  0
LINE
  5
D7
100
AcDbEntity
  8
0
 62
0
370
-1
 48
1.0
  6
BYLAYER
100
AcDbLine
 10
71.2232021389179408
 20
33.4129690000000039
 30
0.0
 11
71.2232021389179408
 21
34.4119690000000062
 31
0.0
  0
LINE
  5
D8
100
AcDbEntity
  8
0
 62
0
370
-1
 48
1.0
  6
BYLAYER
100
AcDbLine
 10
71.2232021389179408
 20
34.4119690000000062
 30
0.0
 11
72.0236021389179371
 21
34.4119690000000062
 31
0.0
  0
LINE
  5
D9
100
AcDbEntity
  8
0
 62
0
370
-1
 48
1.0
  6
BYLAYER
100
AcDbLine
 10
72.0236021389179371
 20
34.4119690000000062
 30
0.0
 11
72.0236021389179371
 21
37.5125690000000063
 31
0.0
  0
LINE
  5
DA
100
AcDbEntity
  8
0
 62
0
370
-1
 48
1.0
  6
BYLAYER
100
AcDbLine
 10
72.0236021389179371
 20
37.5125690000000063
 30
0.0
 11
71.2232021389179408
 21
37.5125690000000063
 31
0.0
  0
LINE
  5
DB
100
AcDbEntity
  8
0
 62
0
370
-1
 48
1.0
  6
BYLAYER
100
AcDbLine
 10
71.2232021389179408
 20
37.5125690000000063
 30
0.0
 11
71.2232021389179408
 21
43.3143690000000063
 31
0.0
  0
LINE
  5
DC
100
AcDbEntity
  8
0
 62
0
370
-1
 48
1.0
  6
BYLAYER
100
AcDbLine
 10
71.2232021389179408
 20
43.3143690000000063
 30
0.0
 11
72.0236021389179371
 21
43.3143690000000063
 31
0.0
  0
LINE
  5
DD
100
AcDbEntity
  8
0
 62
0
370
-1
 48
1.0
  6
BYLAYER
100
AcDbLine
 10
72.0236021389179371
 20
43.3143690000000063
 30
0.0
 11
72.0236021389179371
 21
46.4134690000000063
 31
0.0
  0
LINE
  5
DE
100
AcDbEntity
  8
0
 62
0
370
-1
 48
1.0
  6
BYLAYER
100
AcDbLine
 10
72.0236021389179371
 20
46.4134690000000063
 30
0.0
 11
71.2232021389179408
 21
46.4134690000000063
 31
0.0
  0
LINE
  5
DF
100
AcDbEntity
  8
0
 62
0
370
-1
 48
1.0
  6
BYLAYER
100
AcDbLine
 10
71.2232021389179408
 20
46.4134690000000063
 30
0.0
 11
71.2232021389179408
 21
47.4139690000000087
 31
0.0
  0
LINE
  5
E0
100
AcDbEntity
  8
0
 62
0
370
-1
 48
1.0
  6
BYLAYER
100
AcDbLine
 10
71.2232021389179408
 20
47.4139690000000087
 30
0.0
 11
57.2236021389179328
 21
47.4139690000000087
 31
0.0
  0
LINE
  5
E1
100
AcDbEntity
  8
0
 62
0
370
-1
 48
1.0
  6
BYLAYER
100
AcDbLine
 10
76.2736021389179371
 20
47.4139690000000087
 30
0.0
 11
76.2736021389179371
 21
46.4134690000000063
 31
0.0
  0
LINE
  5
E2
100
AcDbEntity
  8
0
 62
0
370
-1
 48
1.0
  6
BYLAYER
100
AcDbLine
 10
76.2736021389179371
 20
46.4134690000000063
 30
0.0
 11
75.4731021389179375
 21
46.4134690000000063
 31
0.0
  0
LINE
  5
E3
100
AcDbEntity
  8
0
 62
0
370
-1
 48
1.0
  6
BYLAYER
100
AcDbLine
 10
75.4731021389179375
 20
46.4134690000000063
 30
0.0
 11
75.4731021389179375
 21
43.3143690000000063
 31
0.0
  0
LINE
  5
E4
100
AcDbEntity
  8
0
 62
0
370
-1
 48
1.0
  6
BYLAYER
100
AcDbLine
 10
75.4731021389179375
 20
43.3143690000000063
 30
0.0
 11
76.2736021389179371
 21
43.3143690000000063
 31
0.0
  0
LINE
  5
E5
100
AcDbEntity
  8
0
 62
0
370
-1
 48
1.0
  6
BYLAYER
100
AcDbLine
 10
76.2736021389179371
 20
43.3143690000000063
 30
0.0
 11
76.2736021389179371
 21
37.5125690000000063
 31
0.0
  0
LINE
  5
E6
100
AcDbEntity
  8
0
 62
0
370
-1
 48
1.0
  6
BYLAYER
100
AcDbLine
 10
76.2736021389179371
 20
37.5125690000000063
 30
0.0
 11
75.4731021389179375
 21
37.5125690000000063
 31
0.0
  0
LINE
  5
E7
100
AcDbEntity
  8
0
 62
0
370
-1
 48
1.0
  6
BYLAYER
100
AcDbLine
 10
75.4731021389179375
 20
37.5125690000000063
 30
0.0
 11
75.4731021389179375
 21
34.4119690000000062
 31
0.0
  0
LINE
  5
E8
100
AcDbEntity
  8
0
 62
0
370
-1
 48
1.0
  6
BYLAYER
100
AcDbLine
 10
75.4731021389179375
 20
34.4119690000000062
 30
0.0
 11
76.2736021389179371
 21
34.4119690000000062
 31
0.0
  0
LINE
  5
E9
100
AcDbEntity
  8
0
 62
0
370
-1
 48
1.0
  6
BYLAYER
100
AcDbLine
 10
76.2736021389179371
 20
34.4119690000000062
 30
0.0
 11
76.2736021389179371
 21
33.4129690000000039
 31
0.0
  0
LINE
  5
EA
100
AcDbEntity
  8
0
 62
0
370
-1
 48
1.0
  6
BYLAYER
100
AcDbLine
 10
76.2736021389179371
 20
33.4129690000000039
 30
0.0
 11
90.2732021389179238
 21
33.4129690000000039
 31
0.0
  0
LINE
  5
EB
100
AcDbEntity
  8
0
 62
0
370
-1
 48
1.0
  6
BYLAYER
100
AcDbLine
 10
90.2732021389179238
 20
33.4129690000000039
 30
0.0
 11
90.2732021389179238
 21
34.4119690000000062
 31
0.0
  0
LINE
  5
EC
100
AcDbEntity
  8
0
 62
0
370
-1
 48
1.0
  6
BYLAYER
100
AcDbLine
 10
90.2732021389179238
 20
34.4119690000000062
 30
0.0
 11
91.0736021389179484
 21
34.4119690000000062
 31
0.0
  0
LINE
  5
ED
100
AcDbEntity
  8
0
 62
0
370
-1
 48
1.0
  6
BYLAYER
100
AcDbLine
 10
91.0736021389179484
 20
34.4119690000000062
 30
0.0
 11
91.0736021389179484
 21
37.5125690000000063
 31
0.0
  0
LINE
  5
EE
100
AcDbEntity
  8
0
 62
0
370
-1
 48
1.0
  6
BYLAYER
100
AcDbLine
 10
91.0736021389179484
 20
37.5125690000000063
 30
0.0
 11
90.2732021389179238
 21
37.5125690000000063
 31
0.0
  0
LINE
  5
EF
100
AcDbEntity
  8
0
 62
0
370
-1
 48
1.0
  6
BYLAYER
100
AcDbLine
 10
90.2732021389179238
 20
37.5125690000000063
 30
0.0
 11
90.2732021389179238
 21
43.3143690000000063
 31
0.0
  0
LINE
  5
F0
100
AcDbEntity
  8
0
 62
0
370
-1
 48
1.0
  6
BYLAYER
100
AcDbLine
 10
90.2732021389179238
 20
43.3143690000000063
 30
0.0
 11
91.0736021389179484
 21
43.3143690000000063
 31
0.0
  0
LINE
  5
F1
100
AcDbEntity
  8
0
 62
0
370
-1
 48
1.0
  6
BYLAYER
100
AcDbLine
 10
91.0736021389179484
 20
43.3143690000000063
 30
0.0
 11
91.0736021389179484
 21
46.4134690000000063
 31
0.0
  0
LINE
  5
F2
100
AcDbEntity
  8
0
 62
0
370
-1
 48
1.0
  6
BYLAYER
100
AcDbLine
 10
91.0736021389179484
 20
46.4134690000000063
 30
0.0
 11
90.2732021389179238
 21
46.4134690000000063
 31
0.0
  0
LINE
  5
F3
100
AcDbEntity
  8
0
 62
0
370
-1
 48
1.0
  6
BYLAYER
100
AcDbLine
 10
90.2732021389179238
 20
46.4134690000000063
 30
0.0
 11
90.2732021389179238
 21
47.4139690000000087
 31
0.0
  0
LINE
  5
F4
100
AcDbEntity
  8
0
 62
0
370
-1
 48
1.0
  6
BYLAYER
100
AcDbLine
 10
90.2732021389179238
 20
47.4139690000000087
 30
0.0
 11
76.2736021389179371
 21
47.4139690000000087
 31
0.0
  0
LINE
  5
F5
100
AcDbEntity
  8
0
 62
0
370
-1
 48
1.0
  6
BYLAYER
100
AcDbLine
 10
95.3236021389179484
 20
47.4139690000000087
 30
0.0
 11
95.3236021389179484
 21
46.4134690000000063
 31
0.0
  0
LINE
  5
F6
100
AcDbEntity
  8
0
 62
0
370
-1
 48
1.0
  6
BYLAYER
100
AcDbLine
 10
95.3236021389179484
 20
46.4134690000000063
 30
0.0
 11
94.5231021389179489
 21
46.4134690000000063
 31
0.0
  0
LINE
  5
F7
100
AcDbEntity
  8
0
 62
0
370
-1
 48
1.0
  6
BYLAYER
100
AcDbLine
 10
94.5231021389179489
 20
46.4134690000000063
 30
0.0
 11
94.5231021389179489
 21
43.3143690000000063
 31
0.0
  0
LINE
  5
F8
100
AcDbEntity
  8
0
 62
0
370
-1
 48
1.0
  6
BYLAYER
100
AcDbLine
 10
94.5231021389179489
 20
43.3143690000000063
 30
0.0
 11
95.3236021389179484
 21
43.3143690000000063
 31
0.0
  0
LINE
  5
F9
100
AcDbEntity
  8
0
 62
0
370
-1
 48
1.0
  6
BYLAYER
100
AcDbLine
 10
95.3236021389179484
 20
43.3143690000000063
 30
0.0
 11
95.3236021389179484
 21
37.5125690000000063
 31
0.0
  0
LINE
  5
FA
100
AcDbEntity
  8
0
 62
0
370
-1
 48
1.0
  6
BYLAYER
100
AcDbLine
 10
95.3236021389179484
 20
37.5125690000000063
 30
0.0
 11
94.5231021389179489
 21
37.5125690000000063
 31
0.0
  0
LINE
  5
FB
100
AcDbEntity
  8
0
 62
0
370
-1
 48
1.0
  6
BYLAYER
100
AcDbLine
 10
94.5231021389179489
 20
37.5125690000000063
 30
0.0
 11
94.5231021389179489
 21
34.4119690000000062
 31
0.0
  0
LINE
  5
FC
100
AcDbEntity
  8
0
 62
0
370
-1
 48
1.0
  6
BYLAYER
100
AcDbLine
 10
94.5231021389179489
 20
34.4119690000000062
 30
0.0
 11
95.3236021389179484
 21
34.4119690000000062
 31
0.0
  0
LINE
  5
FD
100
AcDbEntity
  8
0
 62
0
370
-1
 48
1.0
  6
BYLAYER
100
AcDbLine
 10
95.3236021389179484
 20
34.4119690000000062
 30
0.0
 11
95.3236021389179484
 21
33.4129690000000039
 31
0.0
  0
LINE
  5
FE
100
AcDbEntity
  8
0
 62
0
370
-1
 48
1.0
  6
BYLAYER
100
AcDbLine
 10
95.3236021389179484
 20
33.4129690000000039
 30
0.0
 11
109.3235021389179451
 21
33.4129690000000039
 31
0.0
  0
LINE
  5
FF
100
AcDbEntity
  8
0
 62
0
370
-1
 48
1.0
  6
BYLAYER
100
AcDbLine
 10
109.3235021389179451
 20
33.4129690000000039
 30
0.0
 11
109.3235021389179451
 21
34.4119690000000062
 31
0.0
  0
LINE
  5
100
100
AcDbEntity
  8
0
 62
0
370
-1
 48
1.0
  6
BYLAYER
100
AcDbLine
 10
109.3235021389179451
 20
34.4119690000000062
 30
0.0
 11
110.1235021389179281
 21
34.4119690000000062
 31
0.0
  0
LINE
  5
101
100
AcDbEntity
  8
0
 62
0
370
-1
 48
1.0
  6
BYLAYER
100
AcDbLine
 10
110.1235021389179281
 20
34.4119690000000062
 30
0.0
 11
110.1235021389179281
 21
37.5125690000000063
 31
0.0
  0
LINE
  5
102
100
AcDbEntity
  8
0
 62
0
370
-1
 48
1.0
  6
BYLAYER
100
AcDbLine
 10
110.1235021389179281
 20
37.5125690000000063
 30
0.0
 11
109.3235021389179451
 21
37.5125690000000063
 31
0.0
  0
LINE
  5
103
100
AcDbEntity
  8
0
 62
0
370
-1
 48
1.0
  6
BYLAYER
100
AcDbLine
 10
109.3235021389179451
 20
37.5125690000000063
 30
0.0
 11
109.3235021389179451
 21
43.3143690000000063
 31
0.0
  0
LINE
  5
104
100
AcDbEntity
  8
0
 62
0
370
-1
 48
1.0
  6
BYLAYER
100
AcDbLine
 10
109.3235021389179451
 20
43.3143690000000063
 30
0.0
 11
110.1235021389179281
 21
43.3143690000000063
 31
0.0
  0
LINE
  5
105
100
AcDbEntity
  8
0
 62
0
370
-1
 48
1.0
  6
BYLAYER
100
AcDbLine
 10
110.1235021389179281
 20
43.3143690000000063
 30
0.0
 11
110.1235021389179281
 21
46.4134690000000063
 31
0.0
  0
LINE
  5
106
100
AcDbEntity
  8
0
 62
0
370
-1
 48
1.0
  6
BYLAYER
100
AcDbLine
 10
110.1235021389179281
 20
46.4134690000000063
 30
0.0
 11
109.3235021389179451
 21
46.4134690000000063
 31
0.0
  0
LINE
  5
107
100
AcDbEntity
  8
0
 62
0
370
-1
 48
1.0
  6
BYLAYER
100
AcDbLine
 10
109.3235021389179451
 20
46.4134690000000063
 30
0.0
 11
109.3235021389179451
 21
47.4139690000000087
 31
0.0
  0
LINE
  5
108
100
AcDbEntity
  8
0
 62
0
370
-1
 48
1.0
  6
BYLAYER
100
AcDbLine
 10
109.3235021389179451
 20
47.4139690000000087
 30
0.0
 11
95.3236021389179484
 21
47.4139690000000087
 31
0.0
  0
LINE
  5
109
100
AcDbEntity
  8
0
 62
0
370
-1
 48
1.0
  6
BYLAYER
100
AcDbLine
 10
114.3735021389179281
 20
47.4139690000000087
 30
0.0
 11
114.3735021389179281
 21
46.4134690000000063
 31
0.0
  0
LINE
  5
10A
100
AcDbEntity
  8
0
 62
0
370
-1
 48
1.0
  6
BYLAYER
100
AcDbLine
 10
114.3735021389179281
 20
46.4134690000000063
 30
0.0
 11
113.5735021389179451
 21
46.4134690000000063
 31
0.0
  0
LINE
  5
10B
100
AcDbEntity
  8
0
 62
0
370
-1
 48
1.0
  6
BYLAYER
100
AcDbLine
 10
113.5735021389179451
 20
46.4134690000000063
 30
0.0
 11
113.5735021389179451
 21
43.3143690000000063
 31
0.0
  0
LINE
  5
10C
100
AcDbEntity
  8
0
 62
0
370
-1
 48
1.0
  6
BYLAYER
100
AcDbLine
 10
113.5735021389179451
 20
43.3143690000000063
 30
0.0
 11
114.3735021389179281
 21
43.3143690000000063
 31
0.0
  0
LINE
  5
10D
100
AcDbEntity
  8
0
 62
0
370
-1
 48
1.0
  6
BYLAYER
100
AcDbLine
 10
114.3735021389179281
 20
43.3143690000000063
 30
0.0
 11
114.3735021389179281
 21
37.5125690000000063
 31
0.0
  0
LINE
  5
10E
100
AcDbEntity
  8
0
 62
0
370
-1
 48
1.0
  6
BYLAYER
100
AcDbLine
 10
114.3735021389179281
 20
37.5125690000000063
 30
0.0
 11
113.5735021389179451
 21
37.5125690000000063
 31
0.0
  0
LINE
  5
10F
100
AcDbEntity
  8
0
 62
0
370
-1
 48
1.0
  6
BYLAYER
100
AcDbLine
 10
113.5735021389179451
 20
37.5125690000000063
 30
0.0
 11
113.5735021389179451
 21
34.4119690000000062
 31
0.0
  0
LINE
  5
110
100
AcDbEntity
  8
0
 62
0
370
-1
 48
1.0
  6
BYLAYER
100
AcDbLine
 10
113.5735021389179451
 20
34.4119690000000062
 30
0.0
 11
114.3735021389179281
 21
34.4119690000000062
 31
0.0
  0
LINE
  5
111
100
AcDbEntity
  8
0
 62
0
370
-1
 48
1.0
  6
BYLAYER
100
AcDbLine
 10
114.3735021389179281
 20
34.4119690000000062
 30
0.0
 11
114.3735021389179281
 21
33.4129690000000039
 31
0.0
  0
LINE
  5
112
100
AcDbEntity
  8
0
 62
0
370
-1
 48
1.0
  6
BYLAYER
100
AcDbLine
 10
114.3735021389179281
 20
33.4129690000000039
 30
0.0
 11
128.3735021389179281
 21
33.4129690000000039
 31
0.0
  0
LINE
  5
113
100
AcDbEntity
  8
0
 62
0
370
-1
 48
1.0
  6
BYLAYER
100
AcDbLine
 10
128.3735021389179281
 20
33.4129690000000039
 30
0.0
 11
128.3735021389179281
 21
34.4119690000000062
 31
0.0
  0
LINE
  5
114
100
AcDbEntity
  8
0
 62
0
370
-1
 48
1.0
  6
BYLAYER
100
AcDbLine
 10
128.3735021389179281
 20
34.4119690000000062
 30
0.0
 11
129.1735021389179394
 21
34.4119690000000062
 31
0.0
  0
LINE
  5
115
100
AcDbEntity
  8
0
 62
0
370
-1
 48
1.0
  6
BYLAYER
100
AcDbLine
 10
129.1735021389179394
 20
34.4119690000000062
 30
0.0
 11
129.1735021389179394
 21
37.5125690000000063
 31
0.0
  0
LINE
  5
116
100
AcDbEntity
  8
0
 62
0
370
-1
 48
1.0
  6
BYLAYER
100
AcDbLine
 10
129.1735021389179394
 20
37.5125690000000063
 30
0.0
 11
128.3735021389179281
 21
37.5125690000000063
 31
0.0
  0
LINE
  5
117
100
AcDbEntity
  8
0
 62
0
370
-1
 48
1.0
  6
BYLAYER
100
AcDbLine
 10
128.3735021389179281
 20
37.5125690000000063
 30
0.0
 11
128.3735021389179281
 21
43.3143690000000063
 31
0.0
  0
LINE
  5
118
100
AcDbEntity
  8
0
 62
0
370
-1
 48
1.0
  6
BYLAYER
100
AcDbLine
 10
128.3735021389179281
 20
43.3143690000000063
 30
0.0
 11
129.1735021389179394
 21
43.3143690000000063
 31
0.0
  0
LINE
  5
119
100
AcDbEntity
  8
0
 62
0
370
-1
 48
1.0
  6
BYLAYER
100
AcDbLine
 10
129.1735021389179394
 20
43.3143690000000063
 30
0.0
 11
129.1735021389179394
 21
46.4134690000000063
 31
0.0
  0
LINE
  5
11A
100
AcDbEntity
  8
0
 62
0
370
-1
 48
1.0
  6
BYLAYER
100
AcDbLine
 10
129.1735021389179394
 20
46.4134690000000063
 30
0.0
 11
128.3735021389179281
 21
46.4134690000000063
 31
0.0
  0
LINE
  5
11B
100
AcDbEntity
  8
0
 62
0
370
-1
 48
1.0
  6
BYLAYER
100
AcDbLine
 10
128.3735021389179281
 20
46.4134690000000063
 30
0.0
 11
128.3735021389179281
 21
47.4139690000000087
 31
0.0
  0
LINE
  5
11C
100
AcDbEntity
  8
0
 62
0
370
-1
 48
1.0
  6
BYLAYER
100
AcDbLine
 10
128.3735021389179281
 20
47.4139690000000087
 30
0.0
 11
114.3735021389179281
 21
47.4139690000000087
 31
0.0
  0
LINE
  5
11D
100
AcDbEntity
  8
0
 62
0
370
-1
 48
1.0
  6
BYLAYER
100
AcDbLine
 10
133.4235021389179394
 20
47.4139690000000087
 30
0.0
 11
133.4235021389179394
 21
46.4134690000000063
 31
0.0
  0
LINE
  5
11E
100
AcDbEntity
  8
0
 62
0
370
-1
 48
1.0
  6
BYLAYER
100
AcDbLine
 10
133.4235021389179394
 20
46.4134690000000063
 30
0.0
 11
132.6235021389179281
 21
46.4134690000000063
 31
0.0
  0
LINE
  5
11F
100
AcDbEntity
  8
0
 62
0
370
-1
 48
1.0
  6
BYLAYER
100
AcDbLine
 10
132.6235021389179281
 20
46.4134690000000063
 30
0.0
 11
132.6235021389179281
 21
43.3143690000000063
 31
0.0
  0
LINE
  5
120
100
AcDbEntity
  8
0
 62
0
370
-1
 48
1.0
  6
BYLAYER
100
AcDbLine
 10
132.6235021389179281
 20
43.3143690000000063
 30
0.0
 11
133.4235021389179394
 21
43.3143690000000063
 31
0.0
  0
LINE
  5
121
100
AcDbEntity
  8
0
 62
0
370
-1
 48
1.0
  6
BYLAYER
100
AcDbLine
 10
133.4235021389179394
 20
43.3143690000000063
 30
0.0
 11
133.4235021389179394
 21
37.5125690000000063
 31
0.0
  0
LINE
  5
122
100
AcDbEntity
  8
0
 62
0
370
-1
 48
1.0
  6
BYLAYER
100
AcDbLine
 10
133.4235021389179394
 20
37.5125690000000063
 30
0.0
 11
132.6235021389179281
 21
37.5125690000000063
 31
0.0
  0
LINE
  5
123
100
AcDbEntity
  8
0
 62
0
370
-1
 48
1.0
  6
BYLAYER
100
AcDbLine
 10
132.6235021389179281
 20
37.5125690000000063
 30
0.0
 11
132.6235021389179281
 21
34.4119690000000062
 31
0.0
  0
LINE
  5
124
100
AcDbEntity
  8
0
 62
0
370
-1
 48
1.0
  6
BYLAYER
100
AcDbLine
 10
132.6235021389179281
 20
34.4119690000000062
 30
0.0
 11
133.4235021389179394
 21
34.4119690000000062
 31
0.0
  0
LINE
  5
125
100
AcDbEntity
  8
0
 62
0
370
-1
 48
1.0
  6
BYLAYER
100
AcDbLine
 10
133.4235021389179394
 20
34.4119690000000062
 30
0.0
 11
133.4235021389179394
 21
33.4129690000000039
 31
0.0
  0
LINE
  5
126
100
AcDbEntity
  8
0
 62
0
370
-1
 48
1.0
  6
BYLAYER
100
AcDbLine
 10
133.4235021389179394
 20
33.4129690000000039
 30
0.0
 11
147.4235021389179394
 21
33.4129690000000039
 31
0.0
  0
LINE
  5
127
100
AcDbEntity
  8
0
 62
0
370
-1
 48
1.0
  6
BYLAYER
100
AcDbLine
 10
147.4235021389179394
 20
33.4129690000000039
 30
0.0
 11
147.4235021389179394
 21
34.4119690000000062
 31
0.0
  0
LINE
  5
128
100
AcDbEntity
  8
0
 62
0
370
-1
 48
1.0
  6
BYLAYER
100
AcDbLine
 10
147.4235021389179394
 20
34.4119690000000062
 30
0.0
 11
148.2235021389179224
 21
34.4119690000000062
 31
0.0
  0
LINE
  5
129
100
AcDbEntity
  8
0
 62
0
370
-1
 48
1.0
  6
BYLAYER
100
AcDbLine
 10
148.2235021389179224
 20
34.4119690000000062
 30
0.0
 11
148.2235021389179224
 21
37.5125690000000063
 31
0.0
  0
LINE
  5
12A
100
AcDbEntity
  8
0
 62
0
370
-1
 48
1.0
  6
BYLAYER
100
AcDbLine
 10
148.2235021389179224
 20
37.5125690000000063
 30
0.0
 11
147.4235021389179394
 21
37.5125690000000063
 31
0.0
  0
LINE
  5
12B
100
AcDbEntity
  8
0
 62
0
370
-1
 48
1.0
  6
BYLAYER
100
AcDbLine
 10
147.4235021389179394
 20
37.5125690000000063
 30
0.0
 11
147.4235021389179394
 21
43.3143690000000063
 31
0.0
  0
LINE
  5
12C
100
AcDbEntity
  8
0
 62
0
370
-1
 48
1.0
  6
BYLAYER
100
AcDbLine
 10
147.4235021389179394
 20
43.3143690000000063
 30
0.0
 11
148.2235021389179224
 21
43.3143690000000063
 31
0.0
  0
LINE
  5
12D
100
AcDbEntity
  8
0
 62
0
370
-1
 48
1.0
  6
BYLAYER
100
AcDbLine
 10
148.2235021389179224
 20
43.3143690000000063
 30
0.0
 11
148.2235021389179224
 21
46.4134690000000063
 31
0.0
  0
LINE
  5
12E
100
AcDbEntity
  8
0
 62
0
370
-1
 48
1.0
  6
BYLAYER
100
AcDbLine
 10
148.2235021389179224
 20
46.4134690000000063
 30
0.0
 11
147.4235021389179394
 21
46.4134690000000063
 31
0.0
  0
LINE
  5
12F
100
AcDbEntity
  8
0
 62
0
370
-1
 48
1.0
  6
BYLAYER
100
AcDbLine
 10
147.4235021389179394
 20
46.4134690000000063
 30
0.0
 11
147.4235021389179394
 21
47.4139690000000087
 31
0.0
  0
LINE
  5
130
100
AcDbEntity
  8
0
 62
0
370
-1
 48
1.0
  6
BYLAYER
100
AcDbLine
 10
147.4235021389179394
 20
47.4139690000000087
 30
0.0
 11
133.4235021389179394
 21
47.4139690000000087
 31
0.0
  0
LINE
  5
131
100
AcDbEntity
  8
0
 62
0
370
-1
 48
1.0
  6
BYLAYER
100
AcDbLine
 10
152.4735021389179224
 20
47.4139690000000087
 30
0.0
 11
152.4735021389179224
 21
46.4134690000000063
 31
0.0
  0
LINE
  5
132
100
AcDbEntity
  8
0
 62
0
370
-1
 48
1.0
  6
BYLAYER
100
AcDbLine
 10
152.4735021389179224
 20
46.4134690000000063
 30
0.0
 11
151.6735021389179394
 21
46.4134690000000063
 31
0.0
  0
LINE
  5
133
100
AcDbEntity
  8
0
 62
0
370
-1
 48
1.0
  6
BYLAYER
100
AcDbLine
 10
151.6735021389179394
 20
46.4134690000000063
 30
0.0
 11
151.6735021389179394
 21
43.3143690000000063
 31
0.0
  0
LINE
  5
134
100
AcDbEntity
  8
0
 62
0
370
-1
 48
1.0
  6
BYLAYER
100
AcDbLine
 10
151.6735021389179394
 20
43.3143690000000063
 30
0.0
 11
152.4735021389179224
 21
43.3143690000000063
 31
0.0
  0
LINE
  5
135
100
AcDbEntity
  8
0
 62
0
370
-1
 48
1.0
  6
BYLAYER
100
AcDbLine
 10
152.4735021389179224
 20
43.3143690000000063
 30
0.0
 11
152.4735021389179224
 21
37.5125690000000063
 31
0.0
  0
LINE
  5
136
100
AcDbEntity
  8
0
 62
0
370
-1
 48
1.0
  6
BYLAYER
100
AcDbLine
 10
152.4735021389179224
 20
37.5125690000000063
 30
0.0
 11
151.6735021389179394
 21
37.5125690000000063
 31
0.0
  0
LINE
  5
137
100
AcDbEntity
  8
0
 62
0
370
-1
 48
1.0
  6
BYLAYER
100
AcDbLine
 10
151.6735021389179394
 20
37.5125690000000063
 30
0.0
 11
151.6735021389179394
 21
34.4119690000000062
 31
0.0
  0
LINE
  5
138
100
AcDbEntity
  8
0
 62
0
370
-1
 48
1.0
  6
BYLAYER
100
AcDbLine
 10
151.6735021389179394
 20
34.4119690000000062
 30
0.0
 11
152.4735021389179224
 21
34.4119690000000062
 31
0.0
  0
LINE
  5
139
100
AcDbEntity
  8
0
 62
0
370
-1
 48
1.0
  6
BYLAYER
100
AcDbLine
 10
152.4735021389179224
 20
34.4119690000000062
 30
0.0
 11
152.4735021389179224
 21
33.4129690000000039
 31
0.0
  0
LINE
  5
13A
100
AcDbEntity
  8
0
 62
0
370
-1
 48
1.0
  6
BYLAYER
100
AcDbLine
 10
152.4735021389179224
 20
33.4129690000000039
 30
0.0
 11
166.4735021389179224
 21
33.4129690000000039
 31
0.0
  0
LINE
  5
13B
100
AcDbEntity
  8
0
 62
0
370
-1
 48
1.0
  6
BYLAYER
100
AcDbLine
 10
166.4735021389179224
 20
33.4129690000000039
 30
0.0
 11
166.4735021389179224
 21
34.4119690000000062
 31
0.0
  0
LINE
  5
13C
100
AcDbEntity
  8
0
 62
0
370
-1
 48
1.0
  6
BYLAYER
100
AcDbLine
 10
166.4735021389179224
 20
34.4119690000000062
 30
0.0
 11
167.2735021389179337
 21
34.4119690000000062
 31
0.0
  0
LINE
  5
13D
100
AcDbEntity
  8
0
 62
0
370
-1
 48
1.0
  6
BYLAYER
100
AcDbLine
 10
167.2735021389179337
 20
34.4119690000000062
 30
0.0
 11
167.2735021389179337
 21
37.5125690000000063
 31
0.0
  0
LINE
  5
13E
100
AcDbEntity
  8
0
 62
0
370
-1
 48
1.0
  6
BYLAYER
100
AcDbLine
 10
167.2735021389179337
 20
37.5125690000000063
 30
0.0
 11
166.4735021389179224
 21
37.5125690000000063
 31
0.0
  0
LINE
  5
13F
100
AcDbEntity
  8
0
 62
0
370
-1
 48
1.0
  6
BYLAYER
100
AcDbLine
 10
166.4735021389179224
 20
37.5125690000000063
 30
0.0
 11
166.4735021389179224
 21
43.3143690000000063
 31
0.0
  0
LINE
  5
140
100
AcDbEntity
  8
0
 62
0
370
-1
 48
1.0
  6
BYLAYER
100
AcDbLine
 10
166.4735021389179224
 20
43.3143690000000063
 30
0.0
 11
167.2735021389179337
 21
43.3143690000000063
 31
0.0
  0
LINE
  5
141
100
AcDbEntity
  8
0
 62
0
370
-1
 48
1.0
  6
BYLAYER
100
AcDbLine
 10
167.2735021389179337
 20
43.3143690000000063
 30
0.0
 11
167.2735021389179337
 21
46.4134690000000063
 31
0.0
  0
LINE
  5
142
100
AcDbEntity
  8
0
 62
0
370
-1
 48
1.0
  6
BYLAYER
100
AcDbLine
 10
167.2735021389179337
 20
46.4134690000000063
 30
0.0
 11
166.4735021389179224
 21
46.4134690000000063
 31
0.0
  0
LINE
  5
143
100
AcDbEntity
  8
0
 62
0
370
-1
 48
1.0
  6
BYLAYER
100
AcDbLine
 10
166.4735021389179224
 20
46.4134690000000063
 30
0.0
 11
166.4735021389179224
 21
47.4139690000000087
 31
0.0
  0
LINE
  5
144
100
AcDbEntity
  8
0
 62
0
370
-1
 48
1.0
  6
BYLAYER
100
AcDbLine
 10
166.4735021389179224
 20
47.4139690000000087
 30
0.0
 11
152.4735021389179224
 21
47.4139690000000087
 31
0.0
  0
LINE
  5
145
100
AcDbEntity
  8
0
 62
0
370
-1
 48
1.0
  6
BYLAYER
100
AcDbLine
 10
171.5235021389179337
 20
47.4139690000000087
 30
0.0
 11
171.5235021389179337
 21
46.4134690000000063
 31
0.0
  0
LINE
  5
146
100
AcDbEntity
  8
0
 62
0
370
-1
 48
1.0
  6
BYLAYER
100
AcDbLine
 10
171.5235021389179337
 20
46.4134690000000063
 30
0.0
 11
170.7235021389179224
 21
46.4134690000000063
 31
0.0
  0
LINE
  5
147
100
AcDbEntity
  8
0
 62
0
370
-1
 48
1.0
  6
BYLAYER
100
AcDbLine
 10
170.7235021389179224
 20
46.4134690000000063
 30
0.0
 11
170.7235021389179224
 21
43.3143690000000063
 31
0.0
  0
LINE
  5
148
100
AcDbEntity
  8
0
 62
0
370
-1
 48
1.0
  6
BYLAYER
100
AcDbLine
 10
170.7235021389179224
 20
43.3143690000000063
 30
0.0
 11
171.5235021389179337
 21
43.3143690000000063
 31
0.0
  0
LINE
  5
149
100
AcDbEntity
  8
0
 62
0
370
-1
 48
1.0
  6
BYLAYER
100
AcDbLine
 10
171.5235021389179337
 20
43.3143690000000063
 30
0.0
 11
171.5235021389179337
 21
37.5125690000000063
 31
0.0
  0
LINE
  5
14A
100
AcDbEntity
  8
0
 62
0
370
-1
 48
1.0
  6
BYLAYER
100
AcDbLine
 10
171.5235021389179337
 20
37.5125690000000063
 30
0.0
 11
170.7235021389179224
 21
37.5125690000000063
 31
0.0
  0
LINE
  5
14B
100
AcDbEntity
  8
0
 62
0
370
-1
 48
1.0
  6
BYLAYER
100
AcDbLine
 10
170.7235021389179224
 20
37.5125690000000063
 30
0.0
 11
170.7235021389179224
 21
34.4119690000000062
 31
0.0
  0
LINE
  5
14C
100
AcDbEntity
  8
0
 62
0
370
-1
 48
1.0
  6
BYLAYER
100
AcDbLine
 10
170.7235021389179224
 20
34.4119690000000062
 30
0.0
 11
171.5235021389179337
 21
34.4119690000000062
 31
0.0
  0
LINE
  5
14D
100
AcDbEntity
  8
0
 62
0
370
-1
 48
1.0
  6
BYLAYER
100
AcDbLine
 10
171.5235021389179337
 20
34.4119690000000062
 30
0.0
 11
171.5235021389179337
 21
33.4129690000000039
 31
0.0
  0
LINE
  5
14E
100
AcDbEntity
  8
0
 62
0
370
-1
 48
1.0
  6
BYLAYER
100
AcDbLine
 10
171.5235021389179337
 20
33.4129690000000039
 30
0.0
 11
185.5235021389179337
 21
33.4129690000000039
 31
0.0
  0
LINE
  5
14F
100
AcDbEntity
  8
0
 62
0
370
-1
 48
1.0
  6
BYLAYER
100
AcDbLine
 10
185.5235021389179337
 20
33.4129690000000039
 30
0.0
 11
185.5235021389179337
 21
34.4119690000000062
 31
0.0
  0
LINE
  5
150
100
AcDbEntity
  8
0
 62
0
370
-1
 48
1.0
  6
BYLAYER
100
AcDbLine
 10
185.5235021389179337
 20
34.4119690000000062
 30
0.0
 11
186.3235021389179167
 21
34.4119690000000062
 31
0.0
  0
LINE
  5
151
100
AcDbEntity
  8
0
 62
0
370
-1
 48
1.0
  6
BYLAYER
100
AcDbLine
 10
186.3235021389179167
 20
34.4119690000000062
 30
0.0
 11
186.3235021389179167
 21
37.5125690000000063
 31
0.0
  0
LINE
  5
152
100
AcDbEntity
  8
0
 62
0
370
-1
 48
1.0
  6
BYLAYER
100
AcDbLine
 10
186.3235021389179167
 20
37.5125690000000063
 30
0.0
 11
185.5235021389179337
 21
37.5125690000000063
 31
0.0
  0
LINE
  5
153
100
AcDbEntity
  8
0
 62
0
370
-1
 48
1.0
  6
BYLAYER
100
AcDbLine
 10
185.5235021389179337
 20
37.5125690000000063
 30
0.0
 11
185.5235021389179337
 21
43.3143690000000063
 31
0.0
  0
LINE
  5
154
100
AcDbEntity
  8
0
 62
0
370
-1
 48
1.0
  6
BYLAYER
100
AcDbLine
 10
185.5235021389179337
 20
43.3143690000000063
 30
0.0
 11
186.3235021389179167
 21
43.3143690000000063
 31
0.0
  0
LINE
  5
155
100
AcDbEntity
  8
0
 62
0
370
-1
 48
1.0
  6
BYLAYER
100
AcDbLine
 10
186.3235021389179167
 20
43.3143690000000063
 30
0.0
 11
186.3235021389179167
 21
46.4134690000000063
 31
0.0
  0
LINE
  5
156
100
AcDbEntity
  8
0
 62
0
370
-1
 48
1.0
  6
BYLAYER
100
AcDbLine
 10
186.3235021389179167
 20
46.4134690000000063
 30
0.0
 11
185.5235021389179337
 21
46.4134690000000063
 31
0.0
  0
LINE
  5
157
100
AcDbEntity
  8
0
 62
0
370
-1
 48
1.0
  6
BYLAYER
100
AcDbLine
 10
185.5235021389179337
 20
46.4134690000000063
 30
0.0
 11
185.5235021389179337
 21
47.4139690000000087
 31
0.0
  0
LINE
  5
158
100
AcDbEntity
  8
0
 62
0
370
-1
 48
1.0
  6
BYLAYER
100
AcDbLine
 10
185.5235021389179337
 20
47.4139690000000087
 30
0.0
 11
171.5235021389179337
 21
47.4139690000000087
 31
0.0
  0
LINE
  5
159
100
AcDbEntity
  8
0
 62
0
370
-1
 48
1.0
  6
BYLAYER
100
AcDbLine
 10
190.5735021389179167
 20
47.4139690000000087
 30
0.0
 11
190.5735021389179167
 21
46.4134690000000063
 31
0.0
  0
LINE
  5
15A
100
AcDbEntity
  8
0
 62
0
370
-1
 48
1.0
  6
BYLAYER
100
AcDbLine
 10
190.5735021389179167
 20
46.4134690000000063
 30
0.0
 11
189.7735021389179337
 21
46.4134690000000063
 31
0.0
  0
LINE
  5
15B
100
AcDbEntity
  8
0
 62
0
370
-1
 48
1.0
  6
BYLAYER
100
AcDbLine
 10
189.7735021389179337
 20
46.4134690000000063
 30
0.0
 11
189.7735021389179337
 21
43.3143690000000063
 31
0.0
  0
LINE
  5
15C
100
AcDbEntity
  8
0
 62
0
370
-1
 48
1.0
  6
BYLAYER
100
AcDbLine
 10
189.7735021389179337
 20
43.3143690000000063
 30
0.0
 11
190.5735021389179167
 21
43.3143690000000063
 31
0.0
  0
LINE
  5
15D
100
AcDbEntity
  8
0
 62
0
370
-1
 48
1.0
  6
BYLAYER
100
AcDbLine
 10
190.5735021389179167
 20
43.3143690000000063
 30
0.0
 11
190.5735021389179167
 21
37.5125690000000063
 31
0.0
  0
LINE
  5
15E
100
AcDbEntity
  8
0
 62
0
370
-1
 48
1.0
  6
BYLAYER
100
AcDbLine
 10
190.5735021389179167
 20
37.5125690000000063
 30
0.0
 11
189.7735021389179337
 21
37.5125690000000063
 31
0.0
  0
LINE
  5
15F
100
AcDbEntity
  8
0
 62
0
370
-1
 48
1.0
  6
BYLAYER
100
AcDbLine
 10
189.7735021389179337
 20
37.5125690000000063
 30
0.0
 11
189.7735021389179337
 21
34.4119690000000062
 31
0.0
  0
LINE
  5
160
100
AcDbEntity
  8
0
 62
0
370
-1
 48
1.0
  6
BYLAYER
100
AcDbLine
 10
189.7735021389179337
 20
34.4119690000000062
 30
0.0
 11
190.5735021389179167
 21
34.4119690000000062
 31
0.0
  0
LINE
  5
161
100
AcDbEntity
  8
0
 62
0
370
-1
 48
1.0
  6
BYLAYER
100
AcDbLine
 10
190.5735021389179167
 20
34.4119690000000062
 30
0.0
 11
190.5735021389179167
 21
33.4129690000000039
 31
0.0
  0
LINE
  5
162
100
AcDbEntity
  8
0
 62
0
370
-1
 48
1.0
  6
BYLAYER
100
AcDbLine
 10
190.5735021389179167
 20
33.4129690000000039
 30
0.0
 11
204.5735021389179167
 21
33.4129690000000039
 31
0.0
  0
LINE
  5
163
100
AcDbEntity
  8
0
 62
0
370
-1
 48
1.0
  6
BYLAYER
100
AcDbLine
 10
204.5735021389179167
 20
33.4129690000000039
 30
0.0
 11
204.5735021389179167
 21
34.4119690000000062
 31
0.0
  0
LINE
  5
164
100
AcDbEntity
  8
0
 62
0
370
-1
 48
1.0
  6
BYLAYER
100
AcDbLine
 10
204.5735021389179167
 20
34.4119690000000062
 30
0.0
 11
205.3735021389179281
 21
34.4119690000000062
 31
0.0
  0
LINE
  5
165
100
AcDbEntity
  8
0
 62
0
370
-1
 48
1.0
  6
BYLAYER
100
AcDbLine
 10
205.3735021389179281
 20
34.4119690000000062
 30
0.0
 11
205.3735021389179281
 21
37.5125690000000063
 31
0.0
  0
LINE
  5
166
100
AcDbEntity
  8
0
 62
0
370
-1
 48
1.0
  6
BYLAYER
100
AcDbLine
 10
205.3735021389179281
 20
37.5125690000000063
 30
0.0
 11
204.5735021389179167
 21
37.5125690000000063
 31
0.0
  0
LINE
  5
167
100
AcDbEntity
  8
0
 62
0
370
-1
 48
1.0
  6
BYLAYER
100
AcDbLine
 10
204.5735021389179167
 20
37.5125690000000063
 30
0.0
 11
204.5735021389179167
 21
43.3143690000000063
 31
0.0
  0
LINE
  5
168
100
AcDbEntity
  8
0
 62
0
370
-1
 48
1.0
  6
BYLAYER
100
AcDbLine
 10
204.5735021389179167
 20
43.3143690000000063
 30
0.0
 11
205.3735021389179281
 21
43.3143690000000063
 31
0.0
  0
LINE
  5
169
100
AcDbEntity
  8
0
 62
0
370
-1
 48
1.0
  6
BYLAYER
100
AcDbLine
 10
205.3735021389179281
 20
43.3143690000000063
 30
0.0
 11
205.3735021389179281
 21
46.4134690000000063
 31
0.0
  0
LINE
  5
16A
100
AcDbEntity
  8
0
 62
0
370
-1
 48
1.0
  6
BYLAYER
100
AcDbLine
 10
205.3735021389179281
 20
46.4134690000000063
 30
0.0
 11
204.5735021389179167
 21
46.4134690000000063
 31
0.0
  0
LINE
  5
16B
100
AcDbEntity
  8
0
 62
0
370
-1
 48
1.0
  6
BYLAYER
100
AcDbLine
 10
204.5735021389179167
 20
46.4134690000000063
 30
0.0
 11
204.5735021389179167
 21
47.4139690000000087
 31
0.0
  0
LINE
  5
16C
100
AcDbEntity
  8
0
 62
0
370
-1
 48
1.0
  6
BYLAYER
100
AcDbLine
 10
204.5735021389179167
 20
47.4139690000000087
 30
0.0
 11
190.5735021389179167
 21
47.4139690000000087
 31
0.0
  0
LINE
  5
16D
100
AcDbEntity
  8
0
 62
0
370
-1
 48
1.0
  6
BYLAYER
100
AcDbLine
 10
209.6235021389179281
 20
47.4139690000000087
 30
0.0
 11
209.6235021389179281
 21
46.4134690000000063
 31
0.0
  0
LINE
  5
16E
100
AcDbEntity
  8
0
 62
0
370
-1
 48
1.0
  6
BYLAYER
100
AcDbLine
 10
209.6235021389179281
 20
46.4134690000000063
 30
0.0
 11
208.8235021389179167
 21
46.4134690000000063
 31
0.0
  0
LINE
  5
16F
100
AcDbEntity
  8
0
 62
0
370
-1
 48
1.0
  6
BYLAYER
100
AcDbLine
 10
208.8235021389179167
 20
46.4134690000000063
 30
0.0
 11
208.8235021389179167
 21
43.3143690000000063
 31
0.0
  0
LINE
  5
170
100
AcDbEntity
  8
0
 62
0
370
-1
 48
1.0
  6
BYLAYER
100
AcDbLine
 10
208.8235021389179167
 20
43.3143690000000063
 30
0.0
 11
209.6235021389179281
 21
43.3143690000000063
 31
0.0
  0
LINE
  5
171
100
AcDbEntity
  8
0
 62
0
370
-1
 48
1.0
  6
BYLAYER
100
AcDbLine
 10
209.6235021389179281
 20
43.3143690000000063
 30
0.0
 11
209.6235021389179281
 21
37.5125690000000063
 31
0.0
  0
LINE
  5
172
100
AcDbEntity
  8
0
 62
0
370
-1
 48
1.0
  6
BYLAYER
100
AcDbLine
 10
209.6235021389179281
 20
37.5125690000000063
 30
0.0
 11
208.8235021389179167
 21
37.5125690000000063
 31
0.0
  0
LINE
  5
173
100
AcDbEntity
  8
0
 62
0
370
-1
 48
1.0
  6
BYLAYER
100
AcDbLine
 10
208.8235021389179167
 20
37.5125690000000063
 30
0.0
 11
208.8235021389179167
 21
34.4119690000000062
 31
0.0
  0
LINE
  5
174
100
AcDbEntity
  8
0
 62
0
370
-1
 48
1.0
  6
BYLAYER
100
AcDbLine
 10
208.8235021389179167
 20
34.4119690000000062
 30
0.0
 11
209.6235021389179281
 21
34.4119690000000062
 31
0.0
  0
LINE
  5
175
100
AcDbEntity
  8
0
 62
0
370
-1
 48
1.0
  6
BYLAYER
100
AcDbLine
 10
209.6235021389179281
 20
34.4119690000000062
 30
0.0
 11
209.6235021389179281
 21
33.4129690000000039
 31
0.0
  0
LINE
  5
176
100
AcDbEntity
  8
0
 62
0
370
-1
 48
1.0
  6
BYLAYER
100
AcDbLine
 10
209.6235021389179281
 20
33.4129690000000039
 30
0.0
 11
223.6235021389179281
 21
33.4129690000000039
 31
0.0
  0
LINE
  5
177
100
AcDbEntity
  8
0
 62
0
370
-1
 48
1.0
  6
BYLAYER
100
AcDbLine
 10
223.6235021389179281
 20
33.4129690000000039
 30
0.0
 11
223.6235021389179281
 21
34.4119690000000062
 31
0.0
  0
LINE
  5
178
100
AcDbEntity
  8
0
 62
0
370
-1
 48
1.0
  6
BYLAYER
100
AcDbLine
 10
223.6235021389179281
 20
34.4119690000000062
 30
0.0
 11
224.4235021389179394
 21
34.4119690000000062
 31
0.0
  0
LINE
  5
179
100
AcDbEntity
  8
0
 62
0
370
-1
 48
1.0
  6
BYLAYER
100
AcDbLine
 10
224.4235021389179394
 20
34.4119690000000062
 30
0.0
 11
224.4235021389179394
 21
37.5125690000000063
 31
0.0
  0
LINE
  5
17A
100
AcDbEntity
  8
0
 62
0
370
-1
 48
1.0
  6
BYLAYER
100
AcDbLine
 10
224.4235021389179394
 20
37.5125690000000063
 30
0.0
 11
223.6235021389179281
 21
37.5125690000000063
 31
0.0
  0
LINE
  5
17B
100
AcDbEntity
  8
0
 62
0
370
-1
 48
1.0
  6
BYLAYER
100
AcDbLine
 10
223.6235021389179281
 20
37.5125690000000063
 30
0.0
 11
223.6235021389179281
 21
43.3143690000000063
 31
0.0
  0
LINE
  5
17C
100
AcDbEntity
  8
0
 62
0
370
-1
 48
1.0
  6
BYLAYER
100
AcDbLine
 10
223.6235021389179281
 20
43.3143690000000063
 30
0.0
 11
224.4235021389179394
 21
43.3143690000000063
 31
0.0
  0
LINE
  5
17D
100
AcDbEntity
  8
0
 62
0
370
-1
 48
1.0
  6
BYLAYER
100
AcDbLine
 10
224.4235021389179394
 20
43.3143690000000063
 30
0.0
 11
224.4235021389179394
 21
46.4134690000000063
 31
0.0
  0
LINE
  5
17E
100
AcDbEntity
  8
0
 62
0
370
-1
 48
1.0
  6
BYLAYER
100
AcDbLine
 10
224.4235021389179394
 20
46.4134690000000063
 30
0.0
 11
223.6235021389179281
 21
46.4134690000000063
 31
0.0
  0
LINE
  5
17F
100
AcDbEntity
  8
0
 62
0
370
-1
 48
1.0
  6
BYLAYER
100
AcDbLine
 10
223.6235021389179281
 20
46.4134690000000063
 30
0.0
 11
223.6235021389179281
 21
47.4139690000000087
 31
0.0
  0
LINE
  5
180
100
AcDbEntity
  8
0
 62
0
370
-1
 48
1.0
  6
BYLAYER
100
AcDbLine
 10
223.6235021389179281
 20
47.4139690000000087
 30
0.0
 11
209.6235021389179281
 21
47.4139690000000087
 31
0.0
  0
LINE
  5
181
100
AcDbEntity
  8
0
 62
0
370
-1
 48
1.0
  6
BYLAYER
100
AcDbLine
 10
228.6735021389179394
 20
47.4139690000000087
 30
0.0
 11
228.6735021389179394
 21
46.4134690000000063
 31
0.0
  0
LINE
  5
182
100
AcDbEntity
  8
0
 62
0
370
-1
 48
1.0
  6
BYLAYER
100
AcDbLine
 10
228.6735021389179394
 20
46.4134690000000063
 30
0.0
 11
227.8735021389179281
 21
46.4134690000000063
 31
0.0
  0
LINE
  5
183
100
AcDbEntity
  8
0
 62
0
370
-1
 48
1.0
  6
BYLAYER
100
AcDbLine
 10
227.8735021389179281
 20
46.4134690000000063
 30
0.0
 11
227.8735021389179281
 21
43.3143690000000063
 31
0.0
  0
LINE
  5
184
100
AcDbEntity
  8
0
 62
0
370
-1
 48
1.0
  6
BYLAYER
100
AcDbLine
 10
227.8735021389179281
 20
43.3143690000000063
 30
0.0
 11
228.6735021389179394
 21
43.3143690000000063
 31
0.0
  0
LINE
  5
185
100
AcDbEntity
  8
0
 62
0
370
-1
 48
1.0
  6
BYLAYER
100
AcDbLine
 10
228.6735021389179394
 20
43.3143690000000063
 30
0.0
 11
228.6735021389179394
 21
37.5125690000000063
 31
0.0
  0
LINE
  5
186
100
AcDbEntity
  8
0
 62
0
370
-1
 48
1.0
  6
BYLAYER
100
AcDbLine
 10
228.6735021389179394
 20
37.5125690000000063
 30
0.0
 11
227.8735021389179281
 21
37.5125690000000063
 31
0.0
  0
LINE
  5
187
100
AcDbEntity
  8
0
 62
0
370
-1
 48
1.0
  6
BYLAYER
100
AcDbLine
 10
227.8735021389179281
 20
37.5125690000000063
 30
0.0
 11
227.8735021389179281
 21
34.4119690000000062
 31
0.0
  0
LINE
  5
188
100
AcDbEntity
  8
0
 62
0
370
-1
 48
1.0
  6
BYLAYER
100
AcDbLine
 10
227.8735021389179281
 20
34.4119690000000062
 30
0.0
 11
228.6735021389179394
 21
34.4119690000000062
 31
0.0
  0
LINE
  5
189
100
AcDbEntity
  8
0
 62
0
370
-1
 48
1.0
  6
BYLAYER
100
AcDbLine
 10
228.6735021389179394
 20
34.4119690000000062
 30
0.0
 11
228.6735021389179394
 21
33.4129690000000039
 31
0.0
  0
LINE
  5
18A
100
AcDbEntity
  8
0
 62
0
370
-1
 48
1.0
  6
BYLAYER
100
AcDbLine
 10
228.6735021389179394
 20
33.4129690000000039
 30
0.0
 11
242.6735021389179394
 21
33.4129690000000039
 31
0.0
  0
LINE
  5
18B
100
AcDbEntity
  8
0
 62
0
370
-1
 48
1.0
  6
BYLAYER
100
AcDbLine
 10
242.6735021389179394
 20
33.4129690000000039
 30
0.0
 11
242.6735021389179394
 21
34.4119690000000062
 31
0.0
  0
LINE
  5
18C
100
AcDbEntity
  8
0
 62
0
370
-1
 48
1.0
  6
BYLAYER
100
AcDbLine
 10
242.6735021389179394
 20
34.4119690000000062
 30
0.0
 11
243.4735021389179224
 21
34.4119690000000062
 31
0.0
  0
LINE
  5
18D
100
AcDbEntity
  8
0
 62
0
370
-1
 48
1.0
  6
BYLAYER
100
AcDbLine
 10
243.4735021389179224
 20
34.4119690000000062
 30
0.0
 11
243.4735021389179224
 21
37.5125690000000063
 31
0.0
  0
LINE
  5
18E
100
AcDbEntity
  8
0
 62
0
370
-1
 48
1.0
  6
BYLAYER
100
AcDbLine
 10
243.4735021389179224
 20
37.5125690000000063
 30
0.0
 11
242.6735021389179394
 21
37.5125690000000063
 31
0.0
  0
LINE
  5
18F
100
AcDbEntity
  8
0
 62
0
370
-1
 48
1.0
  6
BYLAYER
100
AcDbLine
 10
242.6735021389179394
 20
37.5125690000000063
 30
0.0
 11
242.6735021389179394
 21
43.3143690000000063
 31
0.0
  0
LINE
  5
190
100
AcDbEntity
  8
0
 62
0
370
-1
 48
1.0
  6
BYLAYER
100
AcDbLine
 10
242.6735021389179394
 20
43.3143690000000063
 30
0.0
 11
243.4735021389179224
 21
43.3143690000000063
 31
0.0
  0
LINE
  5
191
100
AcDbEntity
  8
0
 62
0
370
-1
 48
1.0
  6
BYLAYER
100
AcDbLine
 10
243.4735021389179224
 20
43.3143690000000063
 30
0.0
 11
243.4735021389179224
 21
46.4134690000000063
 31
0.0
  0
LINE
  5
192
100
AcDbEntity
  8
0
 62
0
370
-1
 48
1.0
  6
BYLAYER
100
AcDbLine
 10
243.4735021389179224
 20
46.4134690000000063
 30
0.0
 11
242.6735021389179394
 21
46.4134690000000063
 31
0.0
  0
LINE
  5
193
100
AcDbEntity
  8
0
 62
0
370
-1
 48
1.0
  6
BYLAYER
100
AcDbLine
 10
242.6735021389179394
 20
46.4134690000000063
 30
0.0
 11
242.6735021389179394
 21
47.4139690000000087
 31
0.0
  0
LINE
  5
194
100
AcDbEntity
  8
0
 62
0
370
-1
 48
1.0
  6
BYLAYER
100
AcDbLine
 10
242.6735021389179394
 20
47.4139690000000087
 30
0.0
 11
228.6735021389179394
 21
47.4139690000000087
 31
0.0
  0
LINE
  5
195
100
AcDbEntity
  8
0
 62
0
370
-1
 48
1.0
  6
BYLAYER
100
AcDbLine
 10
254.8675021389179278
 20
47.4139690000000087
 30
0.0
 11
254.8675021389179278
 21
46.4134690000000063
 31
0.0
  0
LINE
  5
196
100
AcDbEntity
  8
0
 62
0
370
-1
 48
1.0
  6
BYLAYER
100
AcDbLine
 10
254.8675021389179278
 20
46.4134690000000063
 30
0.0
 11
254.0665021389179401
 21
46.4134690000000063
 31
0.0
  0
LINE
  5
197
100
AcDbEntity
  8
0
 62
0
370
-1
 48
1.0
  6
BYLAYER
100
AcDbLine
 10
254.0665021389179401
 20
46.4134690000000063
 30
0.0
 11
254.0665021389179401
 21
43.3143690000000063
 31
0.0
  0
LINE
  5
198
100
AcDbEntity
  8
0
 62
0
370
-1
 48
1.0
  6
BYLAYER
100
AcDbLine
 10
254.0665021389179401
 20
43.3143690000000063
 30
0.0
 11
254.8675021389179278
 21
43.3143690000000063
 31
0.0
  0
LINE
  5
199
100
AcDbEntity
  8
0
 62
0
370
-1
 48
1.0
  6
BYLAYER
100
AcDbLine
 10
254.8675021389179278
 20
43.3143690000000063
 30
0.0
 11
254.8675021389179278
 21
37.5125690000000063
 31
0.0
  0
LINE
  5
19A
100
AcDbEntity
  8
0
 62
0
370
-1
 48
1.0
  6
BYLAYER
100
AcDbLine
 10
254.8675021389179278
 20
37.5125690000000063
 30
0.0
 11
254.0665021389179401
 21
37.5125690000000063
 31
0.0
  0
LINE
  5
19B
100
AcDbEntity
  8
0
 62
0
370
-1
 48
1.0
  6
BYLAYER
100
AcDbLine
 10
254.0665021389179401
 20
37.5125690000000063
 30
0.0
 11
254.0665021389179401
 21
34.4119690000000062
 31
0.0
  0
LINE
  5
19C
100
AcDbEntity
  8
0
 62
0
370
-1
 48
1.0
  6
BYLAYER
100
AcDbLine
 10
254.0665021389179401
 20
34.4119690000000062
 30
0.0
 11
254.8675021389179278
 21
34.4119690000000062
 31
0.0
  0
LINE
  5
19D
100
AcDbEntity
  8
0
 62
0
370
-1
 48
1.0
  6
BYLAYER
100
AcDbLine
 10
254.8675021389179278
 20
34.4119690000000062
 30
0.0
 11
254.8675021389179278
 21
33.4129690000000039
 31
0.0
  0
LINE
  5
19E
100
AcDbEntity
  8
0
 62
0
370
-1
 48
1.0
  6
BYLAYER
100
AcDbLine
 10
254.8675021389179278
 20
33.4129690000000039
 30
0.0
 11
268.8665021389179515
 21
33.4129690000000039
 31
0.0
  0
LINE
  5
19F
100
AcDbEntity
  8
0
 62
0
370
-1
 48
1.0
  6
BYLAYER
100
AcDbLine
 10
268.8665021389179515
 20
33.4129690000000039
 30
0.0
 11
268.8665021389179515
 21
34.4119690000000062
 31
0.0
  0
LINE
  5
1A0
100
AcDbEntity
  8
0
 62
0
370
-1
 48
1.0
  6
BYLAYER
100
AcDbLine
 10
268.8665021389179515
 20
34.4119690000000062
 30
0.0
 11
269.6675021389179392
 21
34.4119690000000062
 31
0.0
  0
LINE
  5
1A1
100
AcDbEntity
  8
0
 62
0
370
-1
 48
1.0
  6
BYLAYER
100
AcDbLine
 10
269.6675021389179392
 20
34.4119690000000062
 30
0.0
 11
269.6675021389179392
 21
37.5125690000000063
 31
0.0
  0
LINE
  5
1A2
100
AcDbEntity
  8
0
 62
0
370
-1
 48
1.0
  6
BYLAYER
100
AcDbLine
 10
269.6675021389179392
 20
37.5125690000000063
 30
0.0
 11
268.8665021389179515
 21
37.5125690000000063
 31
0.0
  0
LINE
  5
1A3
100
AcDbEntity
  8
0
 62
0
370
-1
 48
1.0
  6
BYLAYER
100
AcDbLine
 10
268.8665021389179515
 20
37.5125690000000063
 30
0.0
 11
268.8665021389179515
 21
43.3143690000000063
 31
0.0
  0
LINE
  5
1A4
100
AcDbEntity
  8
0
 62
0
370
-1
 48
1.0
  6
BYLAYER
100
AcDbLine
 10
268.8665021389179515
 20
43.3143690000000063
 30
0.0
 11
269.6675021389179392
 21
43.3143690000000063
 31
0.0
  0
LINE
  5
1A5
100
AcDbEntity
  8
0
 62
0
370
-1
 48
1.0
  6
BYLAYER
100
AcDbLine
 10
269.6675021389179392
 20
43.3143690000000063
 30
0.0
 11
269.6675021389179392
 21
46.4134690000000063
 31
0.0
  0
LINE
  5
1A6
100
AcDbEntity
  8
0
 62
0
370
-1
 48
1.0
  6
BYLAYER
100
AcDbLine
 10
269.6675021389179392
 20
46.4134690000000063
 30
0.0
 11
268.8665021389179515
 21
46.4134690000000063
 31
0.0
  0
LINE
  5
1A7
100
AcDbEntity
  8
0
 62
0
370
-1
 48
1.0
  6
BYLAYER
100
AcDbLine
 10
268.8665021389179515
 20
46.4134690000000063
 30
0.0
 11
268.8665021389179515
 21
47.4139690000000087
 31
0.0
  0
LINE
  5
1A8
100
AcDbEntity
  8
0
 62
0
370
-1
 48
1.0
  6
BYLAYER
100
AcDbLine
 10
268.8665021389179515
 20
47.4139690000000087
 30
0.0
 11
254.8675021389179278
 21
47.4139690000000087
 31
0.0
  0
LINE
  5
1A9
100
AcDbEntity
  8
0
 62
0
370
-1
 48
1.0
  6
BYLAYER
100
AcDbLine
 10
281.0615021389179446
 20
47.4139690000000087
 30
0.0
 11
281.0615021389179446
 21
46.4134690000000063
 31
0.0
  0
LINE
  5
1AA
100
AcDbEntity
  8
0
 62
0
370
-1
 48
1.0
  6
BYLAYER
100
AcDbLine
 10
281.0615021389179446
 20
46.4134690000000063
 30
0.0
 11
280.2625021389179096
 21
46.4134690000000063
 31
0.0
  0
LINE
  5
1AB
100
AcDbEntity
  8
0
 62
0
370
-1
 48
1.0
  6
BYLAYER
100
AcDbLine
 10
280.2625021389179096
 20
46.4134690000000063
 30
0.0
 11
280.2625021389179096
 21
43.3143690000000063
 31
0.0
  0
LINE
  5
1AC
100
AcDbEntity
  8
0
 62
0
370
-1
 48
1.0
  6
BYLAYER
100
AcDbLine
 10
280.2625021389179096
 20
43.3143690000000063
 30
0.0
 11
281.0615021389179446
 21
43.3143690000000063
 31
0.0
  0
LINE
  5
1AD
100
AcDbEntity
  8
0
 62
0
370
-1
 48
1.0
  6
BYLAYER
100
AcDbLine
 10
281.0615021389179446
 20
43.3143690000000063
 30
0.0
 11
281.0615021389179446
 21
37.5125690000000063
 31
0.0
  0
LINE
  5
1AE
100
AcDbEntity
  8
0
 62
0
370
-1
 48
1.0
  6
BYLAYER
100
AcDbLine
 10
281.0615021389179446
 20
37.5125690000000063
 30
0.0
 11
280.2625021389179096
 21
37.5125690000000063
 31
0.0
  0
LINE
  5
1AF
100
AcDbEntity
  8
0
 62
0
370
-1
 48
1.0
  6
BYLAYER
100
AcDbLine
 10
280.2625021389179096
 20
37.5125690000000063
 30
0.0
 11
280.2625021389179096
 21
34.4119690000000062
 31
0.0
  0
LINE
  5
1B0
100
AcDbEntity
  8
0
 62
0
370
-1
 48
1.0
  6
BYLAYER
100
AcDbLine
 10
280.2625021389179096
 20
34.4119690000000062
 30
0.0
 11
281.0615021389179446
 21
34.4119690000000062
 31
0.0
  0
LINE
  5
1B1
100
AcDbEntity
  8
0
 62
0
370
-1
 48
1.0
  6
BYLAYER
100
AcDbLine
 10
281.0615021389179446
 20
34.4119690000000062
 30
0.0
 11
281.0615021389179446
 21
33.4129690000000039
 31
0.0
  0
LINE
  5
1B2
100
AcDbEntity
  8
0
 62
0
370
-1
 48
1.0
  6
BYLAYER
100
AcDbLine
 10
281.0615021389179446
 20
33.4129690000000039
 30
0.0
 11
295.0605021389179115
 21
33.4129690000000039
 31
0.0
  0
LINE
  5
1B3
100
AcDbEntity
  8
0
 62
0
370
-1
 48
1.0
  6
BYLAYER
100
AcDbLine
 10
295.0605021389179115
 20
33.4129690000000039
 30
0.0
 11
295.0605021389179115
 21
34.4119690000000062
 31
0.0
  0
LINE
  5
1B4
100
AcDbEntity
  8
0
 62
0
370
-1
 48
1.0
  6
BYLAYER
100
AcDbLine
 10
295.0605021389179115
 20
34.4119690000000062
 30
0.0
 11
295.861502138917956
 21
34.4119690000000062
 31
0.0
  0
LINE
  5
1B5
100
AcDbEntity
  8
0
 62
0
370
-1
 48
1.0
  6
BYLAYER
100
AcDbLine
 10
295.861502138917956
 20
34.4119690000000062
 30
0.0
 11
295.861502138917956
 21
37.5125690000000063
 31
0.0
  0
LINE
  5
1B6
100
AcDbEntity
  8
0
 62
0
370
-1
 48
1.0
  6
BYLAYER
100
AcDbLine
 10
295.861502138917956
 20
37.5125690000000063
 30
0.0
 11
295.0605021389179115
 21
37.5125690000000063
 31
0.0
  0
LINE
  5
1B7
100
AcDbEntity
  8
0
 62
0
370
-1
 48
1.0
  6
BYLAYER
100
AcDbLine
 10
295.0605021389179115
 20
37.5125690000000063
 30
0.0
 11
295.0605021389179115
 21
43.3143690000000063
 31
0.0
  0
LINE
  5
1B8
100
AcDbEntity
  8
0
 62
0
370
-1
 48
1.0
  6
BYLAYER
100
AcDbLine
 10
295.0605021389179115
 20
43.3143690000000063
 30
0.0
 11
295.861502138917956
 21
43.3143690000000063
 31
0.0
  0
LINE
  5
1B9
100
AcDbEntity
  8
0
 62
0
370
-1
 48
1.0
  6
BYLAYER
100
AcDbLine
 10
295.861502138917956
 20
43.3143690000000063
 30
0.0
 11
295.861502138917956
 21
46.4134690000000063
 31
0.0
  0
LINE
  5
1BA
100
AcDbEntity
  8
0
 62
0
370
-1
 48
1.0
  6
BYLAYER
100
AcDbLine
 10
295.861502138917956
 20
46.4134690000000063
 30
0.0
 11
295.0605021389179115
 21
46.4134690000000063
 31
0.0
  0
LINE
  5
1BB
100
AcDbEntity
  8
0
 62
0
370
-1
 48
1.0
  6
BYLAYER
100
AcDbLine
 10
295.0605021389179115
 20
46.4134690000000063
 30
0.0
 11
295.0605021389179115
 21
47.4139690000000087
 31
0.0
  0
LINE
  5
1BC
100
AcDbEntity
  8
0
 62
0
370
-1
 48
1.0
  6
BYLAYER
100
AcDbLine
 10
295.0605021389179115
 20
47.4139690000000087
 30
0.0
 11
281.0615021389179446
 21
47.4139690000000087
 31
0.0
  0
LINE
  5
1BD
100
AcDbEntity
  8
0
 62
0
370
-1
 48
1.0
  6
BYLAYER
100
AcDbLine
 10
269.1545021389179055
 20
66.4639690000000058
 30
0.0
 11
269.1545021389179055
 21
65.4634690000000035
 31
0.0
  0
LINE
  5
1BE
100
AcDbEntity
  8
0
 62
0
370
-1
 48
1.0
  6
BYLAYER
100
AcDbLine
 10
269.1545021389179055
 20
65.4634690000000035
 30
0.0
 11
268.354502138917951
 21
65.4634690000000035
 31
0.0
  0
LINE
  5
1BF
100
AcDbEntity
  8
0
 62
0
370
-1
 48
1.0
  6
BYLAYER
100
AcDbLine
 10
268.354502138917951
 20
65.4634690000000035
 30
0.0
 11
268.354502138917951
 21
62.3643690000000106
 31
0.0
  0
LINE
  5
1C0
100
AcDbEntity
  8
0
 62
0
370
-1
 48
1.0
  6
BYLAYER
100
AcDbLine
 10
268.354502138917951
 20
62.3643690000000106
 30
0.0
 11
269.1545021389179055
 21
62.3643690000000106
 31
0.0
  0
LINE
  5
1C1
100
AcDbEntity
  8
0
 62
0
370
-1
 48
1.0
  6
BYLAYER
100
AcDbLine
 10
269.1545021389179055
 20
62.3643690000000106
 30
0.0
 11
269.1545021389179055
 21
61.7621690000000001
 31
0.0
  0
LINE
  5
1C2
100
AcDbEntity
  8
0
 62
0
370
-1
 48
1.0
  6
BYLAYER
100
AcDbLine
 10
269.1545021389179055
 20
61.7621690000000001
 30
0.0
 11
267.5795021389179169
 21
61.7621690000000001
 31
0.0
  0
LINE
  5
1C3
100
AcDbEntity
  8
0
 62
0
370
-1
 48
1.0
  6
BYLAYER
100
AcDbLine
 10
267.5795021389179169
 20
61.7621690000000001
 30
0.0
 11
267.5795021389179169
 21
64.9935690000000079
 31
0.0
  0
LINE
  5
1C4
100
AcDbEntity
  8
0
 62
0
370
-1
 48
1.0
  6
BYLAYER
100
AcDbLine
 10
267.5795021389179169
 20
64.9935690000000079
 30
0.0
 11
260.9295021389179396
 21
64.9935690000000079
 31
0.0
  0
LINE
  5
1C5
100
AcDbEntity
  8
0
 62
0
370
-1
 48
1.0
  6
BYLAYER
100
AcDbLine
 10
260.9295021389179396
 20
64.9935690000000079
 30
0.0
 11
260.9295021389179396
 21
61.7621690000000001
 31
0.0
  0
LINE
  5
1C6
100
AcDbEntity
  8
0
 62
0
370
-1
 48
1.0
  6
BYLAYER
100
AcDbLine
 10
260.9295021389179396
 20
61.7621690000000001
 30
0.0
 11
260.0545021389179396
 21
61.7621690000000001
 31
0.0
  0
LINE
  5
1C7
100
AcDbEntity
  8
0
 62
0
370
-1
 48
1.0
  6
BYLAYER
100
AcDbLine
 10
260.0545021389179396
 20
61.7621690000000001
 30
0.0
 11
260.0545021389179396
 21
58.9617690000000039
 31
0.0
  0
LINE
  5
1C8
100
AcDbEntity
  8
0
 62
0
370
-1
 48
1.0
  6
BYLAYER
100
AcDbLine
 10
260.0545021389179396
 20
58.9617690000000039
 30
0.0
 11
260.9295021389179396
 21
58.9617690000000039
 31
0.0
  0
LINE
  5
1C9
100
AcDbEntity
  8
0
 62
0
370
-1
 48
1.0
  6
BYLAYER
100
AcDbLine
 10
260.9295021389179396
 20
58.9617690000000039
 30
0.0
 11
260.9295021389179396
 21
52.6932690000000079
 31
0.0
  0
LINE
  5
1CA
100
AcDbEntity
  8
0
 62
0
370
-1
 48
1.0
  6
BYLAYER
100
AcDbLine
 10
260.9295021389179396
 20
52.6932690000000079
 30
0.0
 11
262.6035021389179178
 21
52.6932690000000079
 31
0.0
  0
LINE
  5
1CB
100
AcDbEntity
  8
0
 62
0
370
-1
 48
1.0
  6
BYLAYER
100
AcDbLine
 10
262.6035021389179178
 20
52.6932690000000079
 30
0.0
 11
262.6035021389179178
 21
51.4927690000000027
 31
0.0
  0
LINE
  5
1CC
100
AcDbEntity
  8
0
 62
0
370
-1
 48
1.0
  6
BYLAYER
100
AcDbLine
 10
262.6035021389179178
 20
51.4927690000000027
 30
0.0
 11
265.9045021389179055
 21
51.4927690000000027
 31
0.0
  0
LINE
  5
1CD
100
AcDbEntity
  8
0
 62
0
370
-1
 48
1.0
  6
BYLAYER
100
AcDbLine
 10
265.9045021389179055
 20
51.4927690000000027
 30
0.0
 11
265.9045021389179055
 21
52.6932690000000079
 31
0.0
  0
LINE
  5
1CE
100
AcDbEntity
  8
0
 62
0
370
-1
 48
1.0
  6
BYLAYER
100
AcDbLine
 10
265.9045021389179055
 20
52.6932690000000079
 30
0.0
 11
267.5795021389179169
 21
52.6932690000000079
 31
0.0
  0
LINE
  5
1CF
100
AcDbEntity
  8
0
 62
0
370
-1
 48
1.0
  6
BYLAYER
100
AcDbLine
 10
267.5795021389179169
 20
52.6932690000000079
 30
0.0
 11
267.5795021389179169
 21
57.1622690000000091
 31
0.0
  0
LINE
  5
1D0
100
AcDbEntity
  8
0
 62
0
370
-1
 48
1.0
  6
BYLAYER
100
AcDbLine
 10
267.5795021389179169
 20
57.1622690000000091
 30
0.0
 11
269.1545021389179055
 21
57.1622690000000091
 31
0.0
  0
LINE
  5
1D1
100
AcDbEntity
  8
0
 62
0
370
-1
 48
1.0
  6
BYLAYER
100
AcDbLine
 10
269.1545021389179055
 20
57.1622690000000091
 30
0.0
 11
269.1545021389179055
 21
56.5625690000000034
 31
0.0
  0
LINE
  5
1D2
100
AcDbEntity
  8
0
 62
0
370
-1
 48
1.0
  6
BYLAYER
100
AcDbLine
 10
269.1545021389179055
 20
56.5625690000000034
 30
0.0
 11
268.354502138917951
 21
56.5625690000000034
 31
0.0
  0
LINE
  5
1D3
100
AcDbEntity
  8
0
 62
0
370
-1
 48
1.0
  6
BYLAYER
100
AcDbLine
 10
268.354502138917951
 20
56.5625690000000034
 30
0.0
 11
268.354502138917951
 21
53.4619690000000034
 31
0.0
  0
LINE
  5
1D4
100
AcDbEntity
  8
0
 62
0
370
-1
 48
1.0
  6
BYLAYER
100
AcDbLine
 10
268.354502138917951
 20
53.4619690000000034
 30
0.0
 11
269.1545021389179055
 21
53.4619690000000034
 31
0.0
  0
LINE
  5
1D5
100
AcDbEntity
  8
0
 62
0
370
-1
 48
1.0
  6
BYLAYER
100
AcDbLine
 10
269.1545021389179055
 20
53.4619690000000034
 30
0.0
 11
269.1545021389179055
 21
52.4629690000000082
 31
0.0
  0
LINE
  5
1D6
100
AcDbEntity
  8
0
 62
0
370
-1
 48
1.0
  6
BYLAYER
100
AcDbLine
 10
269.1545021389179055
 20
52.4629690000000082
 30
0.0
 11
283.1545021389179055
 21
52.4629690000000082
 31
0.0
  0
LINE
  5
1D7
100
AcDbEntity
  8
0
 62
0
370
-1
 48
1.0
  6
BYLAYER
100
AcDbLine
 10
283.1545021389179055
 20
52.4629690000000082
 30
0.0
 11
283.1545021389179055
 21
53.4619690000000034
 31
0.0
  0
LINE
  5
1D8
100
AcDbEntity
  8
0
 62
0
370
-1
 48
1.0
  6
BYLAYER
100
AcDbLine
 10
283.1545021389179055
 20
53.4619690000000034
 30
0.0
 11
283.9535021389179406
 21
53.4619690000000034
 31
0.0
  0
LINE
  5
1D9
100
AcDbEntity
  8
0
 62
0
370
-1
 48
1.0
  6
BYLAYER
100
AcDbLine
 10
283.9535021389179406
 20
53.4619690000000034
 30
0.0
 11
283.9535021389179406
 21
56.5625690000000034
 31
0.0
  0
LINE
  5
1DA
100
AcDbEntity
  8
0
 62
0
370
-1
 48
1.0
  6
BYLAYER
100
AcDbLine
 10
283.9535021389179406
 20
56.5625690000000034
 30
0.0
 11
283.1545021389179055
 21
56.5625690000000034
 31
0.0
  0
LINE
  5
1DB
100
AcDbEntity
  8
0
 62
0
370
-1
 48
1.0
  6
BYLAYER
100
AcDbLine
 10
283.1545021389179055
 20
56.5625690000000034
 30
0.0
 11
283.1545021389179055
 21
57.1622690000000091
 31
0.0
  0
LINE
  5
1DC
100
AcDbEntity
  8
0
 62
0
370
-1
 48
1.0
  6
BYLAYER
100
AcDbLine
 10
283.1545021389179055
 20
57.1622690000000091
 30
0.0
 11
284.729502138917951
 21
57.1622690000000091
 31
0.0
  0
LINE
  5
1DD
100
AcDbEntity
  8
0
 62
0
370
-1
 48
1.0
  6
BYLAYER
100
AcDbLine
 10
284.729502138917951
 20
57.1622690000000091
 30
0.0
 11
284.729502138917951
 21
52.6932690000000079
 31
0.0
  0
LINE
  5
1DE
100
AcDbEntity
  8
0
 62
0
370
-1
 48
1.0
  6
BYLAYER
100
AcDbLine
 10
284.729502138917951
 20
52.6932690000000079
 30
0.0
 11
286.4035021389179292
 21
52.6932690000000079
 31
0.0
  0
LINE
  5
1DF
100
AcDbEntity
  8
0
 62
0
370
-1
 48
1.0
  6
BYLAYER
100
AcDbLine
 10
286.4035021389179292
 20
52.6932690000000079
 30
0.0
 11
286.4035021389179292
 21
51.4927690000000027
 31
0.0
  0
LINE
  5
1E0
100
AcDbEntity
  8
0
 62
0
370
-1
 48
1.0
  6
BYLAYER
100
AcDbLine
 10
286.4035021389179292
 20
51.4927690000000027
 30
0.0
 11
289.7045021389179169
 21
51.4927690000000027
 31
0.0
  0
LINE
  5
1E1
100
AcDbEntity
  8
0
 62
0
370
-1
 48
1.0
  6
BYLAYER
100
AcDbLine
 10
289.7045021389179169
 20
51.4927690000000027
 30
0.0
 11
289.7045021389179169
 21
52.6932690000000079
 31
0.0
  0
LINE
  5
1E2
100
AcDbEntity
  8
0
 62
0
370
-1
 48
1.0
  6
BYLAYER
100
AcDbLine
 10
289.7045021389179169
 20
52.6932690000000079
 30
0.0
 11
291.3795021389179283
 21
52.6932690000000079
 31
0.0
  0
LINE
  5
1E3
100
AcDbEntity
  8
0
 62
0
370
-1
 48
1.0
  6
BYLAYER
100
AcDbLine
 10
291.3795021389179283
 20
52.6932690000000079
 30
0.0
 11
291.3795021389179283
 21
58.9617690000000039
 31
0.0
  0
LINE
  5
1E4
100
AcDbEntity
  8
0
 62
0
370
-1
 48
1.0
  6
BYLAYER
100
AcDbLine
 10
291.3795021389179283
 20
58.9617690000000039
 30
0.0
 11
292.2535021389179519
 21
58.9617690000000039
 31
0.0
  0
LINE
  5
1E5
100
AcDbEntity
  8
0
 62
0
370
-1
 48
1.0
  6
BYLAYER
100
AcDbLine
 10
292.2535021389179519
 20
58.9617690000000039
 30
0.0
 11
292.2535021389179519
 21
61.7621690000000001
 31
0.0
  0
LINE
  5
1E6
100
AcDbEntity
  8
0
 62
0
370
-1
 48
1.0
  6
BYLAYER
100
AcDbLine
 10
292.2535021389179519
 20
61.7621690000000001
 30
0.0
 11
291.3795021389179283
 21
61.7621690000000001
 31
0.0
  0
LINE
  5
1E7
100
AcDbEntity
  8
0
 62
0
370
-1
 48
1.0
  6
BYLAYER
100
AcDbLine
 10
291.3795021389179283
 20
61.7621690000000001
 30
0.0
 11
291.3795021389179283
 21
64.9935690000000079
 31
0.0
  0
LINE
  5
1E8
100
AcDbEntity
  8
0
 62
0
370
-1
 48
1.0
  6
BYLAYER
100
AcDbLine
 10
291.3795021389179283
 20
64.9935690000000079
 30
0.0
 11
284.729502138917951
 21
64.9935690000000079
 31
0.0
  0
LINE
  5
1E9
100
AcDbEntity
  8
0
 62
0
370
-1
 48
1.0
  6
BYLAYER
100
AcDbLine
 10
284.729502138917951
 20
64.9935690000000079
 30
0.0
 11
284.729502138917951
 21
61.7621690000000001
 31
0.0
  0
LINE
  5
1EA
100
AcDbEntity
  8
0
 62
0
370
-1
 48
1.0
  6
BYLAYER
100
AcDbLine
 10
284.729502138917951
 20
61.7621690000000001
 30
0.0
 11
283.1545021389179055
 21
61.7621690000000001
 31
0.0
  0
LINE
  5
1EB
100
AcDbEntity
  8
0
 62
0
370
-1
 48
1.0
  6
BYLAYER
100
AcDbLine
 10
283.1545021389179055
 20
61.7621690000000001
 30
0.0
 11
283.1545021389179055
 21
62.3643690000000106
 31
0.0
  0
LINE
  5
1EC
100
AcDbEntity
  8
0
 62
0
370
-1
 48
1.0
  6
BYLAYER
100
AcDbLine
 10
283.1545021389179055
 20
62.3643690000000106
 30
0.0
 11
283.9535021389179406
 21
62.3643690000000106
 31
0.0
  0
LINE
  5
1ED
100
AcDbEntity
  8
0
 62
0
370
-1
 48
1.0
  6
BYLAYER
100
AcDbLine
 10
283.9535021389179406
 20
62.3643690000000106
 30
0.0
 11
283.9535021389179406
 21
65.4634690000000035
 31
0.0
  0
LINE
  5
1EE
100
AcDbEntity
  8
0
 62
0
370
-1
 48
1.0
  6
BYLAYER
100
AcDbLine
 10
283.9535021389179406
 20
65.4634690000000035
 30
0.0
 11
283.1545021389179055
 21
65.4634690000000035
 31
0.0
  0
LINE
  5
1EF
100
AcDbEntity
  8
0
 62
0
370
-1
 48
1.0
  6
BYLAYER
100
AcDbLine
 10
283.1545021389179055
 20
65.4634690000000035
 30
0.0
 11
283.1545021389179055
 21
66.4639690000000058
 31
0.0
  0
LINE
  5
1F0
100
AcDbEntity
  8
0
 62
0
370
-1
 48
1.0
  6
BYLAYER
100
AcDbLine
 10
283.1545021389179055
 20
66.4639690000000058
 30
0.0
 11
269.1545021389179055
 21
66.4639690000000058
 31
0.0
  0
LINE
  5
1F1
100
AcDbEntity
  8
0
 62
0
370
-1
 48
1.0
  6
BYLAYER
100
AcDbLine
 10
47.6986021389179342
 20
66.4639690000000058
 30
0.0
 11
47.6986021389179342
 21
65.4634690000000035
 31
0.0
  0
LINE
  5
1F2
100
AcDbEntity
  8
0
 62
0
370
-1
 48
1.0
  6
BYLAYER
100
AcDbLine
 10
47.6986021389179342
 20
65.4634690000000035
 30
0.0
 11
46.8981021389179347
 21
65.4634690000000035
 31
0.0
  0
LINE
  5
1F3
100
AcDbEntity
  8
0
 62
0
370
-1
 48
1.0
  6
BYLAYER
100
AcDbLine
 10
46.8981021389179347
 20
65.4634690000000035
 30
0.0
 11
46.8981021389179347
 21
62.3643690000000106
 31
0.0
  0
LINE
  5
1F4
100
AcDbEntity
  8
0
 62
0
370
-1
 48
1.0
  6
BYLAYER
100
AcDbLine
 10
46.8981021389179347
 20
62.3643690000000106
 30
0.0
 11
47.6986021389179342
 21
62.3643690000000106
 31
0.0
  0
LINE
  5
1F5
100
AcDbEntity
  8
0
 62
0
370
-1
 48
1.0
  6
BYLAYER
100
AcDbLine
 10
47.6986021389179342
 20
62.3643690000000106
 30
0.0
 11
47.6986021389179342
 21
56.5625690000000034
 31
0.0
  0
LINE
  5
1F6
100
AcDbEntity
  8
0
 62
0
370
-1
 48
1.0
  6
BYLAYER
100
AcDbLine
 10
47.6986021389179342
 20
56.5625690000000034
 30
0.0
 11
46.8981021389179347
 21
56.5625690000000034
 31
0.0
  0
LINE
  5
1F7
100
AcDbEntity
  8
0
 62
0
370
-1
 48
1.0
  6
BYLAYER
100
AcDbLine
 10
46.8981021389179347
 20
56.5625690000000034
 30
0.0
 11
46.8981021389179347
 21
53.4619690000000034
 31
0.0
  0
LINE
  5
1F8
100
AcDbEntity
  8
0
 62
0
370
-1
 48
1.0
  6
BYLAYER
100
AcDbLine
 10
46.8981021389179347
 20
53.4619690000000034
 30
0.0
 11
47.6986021389179342
 21
53.4619690000000034
 31
0.0
  0
LINE
  5
1F9
100
AcDbEntity
  8
0
 62
0
370
-1
 48
1.0
  6
BYLAYER
100
AcDbLine
 10
47.6986021389179342
 20
53.4619690000000034
 30
0.0
 11
47.6986021389179342
 21
52.4629690000000082
 31
0.0
  0
LINE
  5
1FA
100
AcDbEntity
  8
0
 62
0
370
-1
 48
1.0
  6
BYLAYER
100
AcDbLine
 10
47.6986021389179342
 20
52.4629690000000082
 30
0.0
 11
61.698202138917928
 21
52.4629690000000082
 31
0.0
  0
LINE
  5
1FB
100
AcDbEntity
  8
0
 62
0
370
-1
 48
1.0
  6
BYLAYER
100
AcDbLine
 10
61.698202138917928
 20
52.4629690000000082
 30
0.0
 11
61.698202138917928
 21
53.4619690000000034
 31
0.0
  0
LINE
  5
1FC
100
AcDbEntity
  8
0
 62
0
370
-1
 48
1.0
  6
BYLAYER
100
AcDbLine
 10
61.698202138917928
 20
53.4619690000000034
 30
0.0
 11
62.4986021389179385
 21
53.4619690000000034
 31
0.0
  0
LINE
  5
1FD
100
AcDbEntity
  8
0
 62
0
370
-1
 48
1.0
  6
BYLAYER
100
AcDbLine
 10
62.4986021389179385
 20
53.4619690000000034
 30
0.0
 11
62.4986021389179385
 21
56.5625690000000034
 31
0.0
  0
LINE
  5
1FE
100
AcDbEntity
  8
0
 62
0
370
-1
 48
1.0
  6
BYLAYER
100
AcDbLine
 10
62.4986021389179385
 20
56.5625690000000034
 30
0.0
 11
61.698202138917928
 21
56.5625690000000034
 31
0.0
  0
LINE
  5
1FF
100
AcDbEntity
  8
0
 62
0
370
-1
 48
1.0
  6
BYLAYER
100
AcDbLine
 10
61.698202138917928
 20
56.5625690000000034
 30
0.0
 11
61.698202138917928
 21
62.3643690000000106
 31
0.0
  0
LINE
  5
200
100
AcDbEntity
  8
0
 62
0
370
-1
 48
1.0
  6
BYLAYER
100
AcDbLine
 10
61.698202138917928
 20
62.3643690000000106
 30
0.0
 11
62.4986021389179385
 21
62.3643690000000106
 31
0.0
  0
LINE
  5
201
100
AcDbEntity
  8
0
 62
0
370
-1
 48
1.0
  6
BYLAYER
100
AcDbLine
 10
62.4986021389179385
 20
62.3643690000000106
 30
0.0
 11
62.4986021389179385
 21
65.4634690000000035
 31
0.0
  0
LINE
  5
202
100
AcDbEntity
  8
0
 62
0
370
-1
 48
1.0
  6
BYLAYER
100
AcDbLine
 10
62.4986021389179385
 20
65.4634690000000035
 30
0.0
 11
61.698202138917928
 21
65.4634690000000035
 31
0.0
  0
LINE
  5
203
100
AcDbEntity
  8
0
 62
0
370
-1
 48
1.0
  6
BYLAYER
100
AcDbLine
 10
61.698202138917928
 20
65.4634690000000035
 30
0.0
 11
61.698202138917928
 21
66.4639690000000058
 31
0.0
  0
LINE
  5
204
100
AcDbEntity
  8
0
 62
0
370
-1
 48
1.0
  6
BYLAYER
100
AcDbLine
 10
61.698202138917928
 20
66.4639690000000058
 30
0.0
 11
47.6986021389179342
 21
66.4639690000000058
 31
0.0
  0
LINE
  5
205
100
AcDbEntity
  8
0
 62
0
370
-1
 48
1.0
  6
BYLAYER
100
AcDbLine
 10
66.7486021389179314
 20
66.4639690000000058
 30
0.0
 11
66.7486021389179314
 21
65.4634690000000035
 31
0.0
  0
LINE
  5
206
100
AcDbEntity
  8
0
 62
0
370
-1
 48
1.0
  6
BYLAYER
100
AcDbLine
 10
66.7486021389179314
 20
65.4634690000000035
 30
0.0
 11
65.9481021389179318
 21
65.4634690000000035
 31
0.0
  0
LINE
  5
207
100
AcDbEntity
  8
0
 62
0
370
-1
 48
1.0
  6
BYLAYER
100
AcDbLine
 10
65.9481021389179318
 20
65.4634690000000035
 30
0.0
 11
65.9481021389179318
 21
62.3643690000000106
 31
0.0
  0
LINE
  5
208
100
AcDbEntity
  8
0
 62
0
370
-1
 48
1.0
  6
BYLAYER
100
AcDbLine
 10
65.9481021389179318
 20
62.3643690000000106
 30
0.0
 11
66.7486021389179314
 21
62.3643690000000106
 31
0.0
  0
LINE
  5
209
100
AcDbEntity
  8
0
 62
0
370
-1
 48
1.0
  6
BYLAYER
100
AcDbLine
 10
66.7486021389179314
 20
62.3643690000000106
 30
0.0
 11
66.7486021389179314
 21
56.5625690000000034
 31
0.0
  0
LINE
  5
20A
100
AcDbEntity
  8
0
 62
0
370
-1
 48
1.0
  6
BYLAYER
100
AcDbLine
 10
66.7486021389179314
 20
56.5625690000000034
 30
0.0
 11
65.9481021389179318
 21
56.5625690000000034
 31
0.0
  0
LINE
  5
20B
100
AcDbEntity
  8
0
 62
0
370
-1
 48
1.0
  6
BYLAYER
100
AcDbLine
 10
65.9481021389179318
 20
56.5625690000000034
 30
0.0
 11
65.9481021389179318
 21
53.4619690000000034
 31
0.0
  0
LINE
  5
20C
100
AcDbEntity
  8
0
 62
0
370
-1
 48
1.0
  6
BYLAYER
100
AcDbLine
 10
65.9481021389179318
 20
53.4619690000000034
 30
0.0
 11
66.7486021389179314
 21
53.4619690000000034
 31
0.0
  0
LINE
  5
20D
100
AcDbEntity
  8
0
 62
0
370
-1
 48
1.0
  6
BYLAYER
100
AcDbLine
 10
66.7486021389179314
 20
53.4619690000000034
 30
0.0
 11
66.7486021389179314
 21
52.4629690000000082
 31
0.0
  0
LINE
  5
20E
100
AcDbEntity
  8
0
 62
0
370
-1
 48
1.0
  6
BYLAYER
100
AcDbLine
 10
66.7486021389179314
 20
52.4629690000000082
 30
0.0
 11
80.7482021389179465
 21
52.4629690000000082
 31
0.0
  0
LINE
  5
20F
100
AcDbEntity
  8
0
 62
0
370
-1
 48
1.0
  6
BYLAYER
100
AcDbLine
 10
80.7482021389179465
 20
52.4629690000000082
 30
0.0
 11
80.7482021389179465
 21
53.4619690000000034
 31
0.0
  0
LINE
  5
210
100
AcDbEntity
  8
0
 62
0
370
-1
 48
1.0
  6
BYLAYER
100
AcDbLine
 10
80.7482021389179465
 20
53.4619690000000034
 30
0.0
 11
81.5486021389179427
 21
53.4619690000000034
 31
0.0
  0
LINE
  5
211
100
AcDbEntity
  8
0
 62
0
370
-1
 48
1.0
  6
BYLAYER
100
AcDbLine
 10
81.5486021389179427
 20
53.4619690000000034
 30
0.0
 11
81.5486021389179427
 21
56.5625690000000034
 31
0.0
  0
LINE
  5
212
100
AcDbEntity
  8
0
 62
0
370
-1
 48
1.0
  6
BYLAYER
100
AcDbLine
 10
81.5486021389179427
 20
56.5625690000000034
 30
0.0
 11
80.7482021389179465
 21
56.5625690000000034
 31
0.0
  0
LINE
  5
213
100
AcDbEntity
  8
0
 62
0
370
-1
 48
1.0
  6
BYLAYER
100
AcDbLine
 10
80.7482021389179465
 20
56.5625690000000034
 30
0.0
 11
80.7482021389179465
 21
62.3643690000000106
 31
0.0
  0
LINE
  5
214
100
AcDbEntity
  8
0
 62
0
370
-1
 48
1.0
  6
BYLAYER
100
AcDbLine
 10
80.7482021389179465
 20
62.3643690000000106
 30
0.0
 11
81.5486021389179427
 21
62.3643690000000106
 31
0.0
  0
LINE
  5
215
100
AcDbEntity
  8
0
 62
0
370
-1
 48
1.0
  6
BYLAYER
100
AcDbLine
 10
81.5486021389179427
 20
62.3643690000000106
 30
0.0
 11
81.5486021389179427
 21
65.4634690000000035
 31
0.0
  0
LINE
  5
216
100
AcDbEntity
  8
0
 62
0
370
-1
 48
1.0
  6
BYLAYER
100
AcDbLine
 10
81.5486021389179427
 20
65.4634690000000035
 30
0.0
 11
80.7482021389179465
 21
65.4634690000000035
 31
0.0
  0
LINE
  5
217
100
AcDbEntity
  8
0
 62
0
370
-1
 48
1.0
  6
BYLAYER
100
AcDbLine
 10
80.7482021389179465
 20
65.4634690000000035
 30
0.0
 11
80.7482021389179465
 21
66.4639690000000058
 31
0.0
  0
LINE
  5
218
100
AcDbEntity
  8
0
 62
0
370
-1
 48
1.0
  6
BYLAYER
100
AcDbLine
 10
80.7482021389179465
 20
66.4639690000000058
 30
0.0
 11
66.7486021389179314
 21
66.4639690000000058
 31
0.0
  0
LINE
  5
219
100
AcDbEntity
  8
0
 62
0
370
-1
 48
1.0
  6
BYLAYER
100
AcDbLine
 10
85.7986021389179427
 20
66.4639690000000058
 30
0.0
 11
85.7986021389179427
 21
65.4634690000000035
 31
0.0
  0
LINE
  5
21A
100
AcDbEntity
  8
0
 62
0
370
-1
 48
1.0
  6
BYLAYER
100
AcDbLine
 10
85.7986021389179427
 20
65.4634690000000035
 30
0.0
 11
84.9981021389179432
 21
65.4634690000000035
 31
0.0
  0
LINE
  5
21B
100
AcDbEntity
  8
0
 62
0
370
-1
 48
1.0
  6
BYLAYER
100
AcDbLine
 10
84.9981021389179432
 20
65.4634690000000035
 30
0.0
 11
84.9981021389179432
 21
62.3643690000000106
 31
0.0
  0
LINE
  5
21C
100
AcDbEntity
  8
0
 62
0
370
-1
 48
1.0
  6
BYLAYER
100
AcDbLine
 10
84.9981021389179432
 20
62.3643690000000106
 30
0.0
 11
85.7986021389179427
 21
62.3643690000000106
 31
0.0
  0
LINE
  5
21D
100
AcDbEntity
  8
0
 62
0
370
-1
 48
1.0
  6
BYLAYER
100
AcDbLine
 10
85.7986021389179427
 20
62.3643690000000106
 30
0.0
 11
85.7986021389179427
 21
56.5625690000000034
 31
0.0
  0
LINE
  5
21E
100
AcDbEntity
  8
0
 62
0
370
-1
 48
1.0
  6
BYLAYER
100
AcDbLine
 10
85.7986021389179427
 20
56.5625690000000034
 30
0.0
 11
84.9981021389179432
 21
56.5625690000000034
 31
0.0
  0
LINE
  5
21F
100
AcDbEntity
  8
0
 62
0
370
-1
 48
1.0
  6
BYLAYER
100
AcDbLine
 10
84.9981021389179432
 20
56.5625690000000034
 30
0.0
 11
84.9981021389179432
 21
53.4619690000000034
 31
0.0
  0
LINE
  5
220
100
AcDbEntity
  8
0
 62
0
370
-1
 48
1.0
  6
BYLAYER
100
AcDbLine
 10
84.9981021389179432
 20
53.4619690000000034
 30
0.0
 11
85.7986021389179427
 21
53.4619690000000034
 31
0.0
  0
LINE
  5
221
100
AcDbEntity
  8
0
 62
0
370
-1
 48
1.0
  6
BYLAYER
100
AcDbLine
 10
85.7986021389179427
 20
53.4619690000000034
 30
0.0
 11
85.7986021389179427
 21
52.4629690000000082
 31
0.0
  0
LINE
  5
222
100
AcDbEntity
  8
0
 62
0
370
-1
 48
1.0
  6
BYLAYER
100
AcDbLine
 10
85.7986021389179427
 20
52.4629690000000082
 30
0.0
 11
99.7985021389179394
 21
52.4629690000000082
 31
0.0
  0
LINE
  5
223
100
AcDbEntity
  8
0
 62
0
370
-1
 48
1.0
  6
BYLAYER
100
AcDbLine
 10
99.7985021389179394
 20
52.4629690000000082
 30
0.0
 11
99.7985021389179394
 21
53.4619690000000034
 31
0.0
  0
LINE
  5
224
100
AcDbEntity
  8
0
 62
0
370
-1
 48
1.0
  6
BYLAYER
100
AcDbLine
 10
99.7985021389179394
 20
53.4619690000000034
 30
0.0
 11
100.5985021389179224
 21
53.4619690000000034
 31
0.0
  0
LINE
  5
225
100
AcDbEntity
  8
0
 62
0
370
-1
 48
1.0
  6
BYLAYER
100
AcDbLine
 10
100.5985021389179224
 20
53.4619690000000034
 30
0.0
 11
100.5985021389179224
 21
56.5625690000000034
 31
0.0
  0
LINE
  5
226
100
AcDbEntity
  8
0
 62
0
370
-1
 48
1.0
  6
BYLAYER
100
AcDbLine
 10
100.5985021389179224
 20
56.5625690000000034
 30
0.0
 11
99.7985021389179394
 21
56.5625690000000034
 31
0.0
  0
LINE
  5
227
100
AcDbEntity
  8
0
 62
0
370
-1
 48
1.0
  6
BYLAYER
100
AcDbLine
 10
99.7985021389179394
 20
56.5625690000000034
 30
0.0
 11
99.7985021389179394
 21
62.3643690000000106
 31
0.0
  0
LINE
  5
228
100
AcDbEntity
  8
0
 62
0
370
-1
 48
1.0
  6
BYLAYER
100
AcDbLine
 10
99.7985021389179394
 20
62.3643690000000106
 30
0.0
 11
100.5985021389179224
 21
62.3643690000000106
 31
0.0
  0
LINE
  5
229
100
AcDbEntity
  8
0
 62
0
370
-1
 48
1.0
  6
BYLAYER
100
AcDbLine
 10
100.5985021389179224
 20
62.3643690000000106
 30
0.0
 11
100.5985021389179224
 21
65.4634690000000035
 31
0.0
  0
LINE
  5
22A
100
AcDbEntity
  8
0
 62
0
370
-1
 48
1.0
  6
BYLAYER
100
AcDbLine
 10
100.5985021389179224
 20
65.4634690000000035
 30
0.0
 11
99.7985021389179394
 21
65.4634690000000035
 31
0.0
  0
LINE
  5
22B
100
AcDbEntity
  8
0
 62
0
370
-1
 48
1.0
  6
BYLAYER
100
AcDbLine
 10
99.7985021389179394
 20
65.4634690000000035
 30
0.0
 11
99.7985021389179394
 21
66.4639690000000058
 31
0.0
  0
LINE
  5
22C
100
AcDbEntity
  8
0
 62
0
370
-1
 48
1.0
  6
BYLAYER
100
AcDbLine
 10
99.7985021389179394
 20
66.4639690000000058
 30
0.0
 11
85.7986021389179427
 21
66.4639690000000058
 31
0.0
  0
LINE
  5
22D
100
AcDbEntity
  8
0
 62
0
370
-1
 48
1.0
  6
BYLAYER
100
AcDbLine
 10
104.8485021389179224
 20
66.4639690000000058
 30
0.0
 11
104.8485021389179224
 21
65.4634690000000035
 31
0.0
  0
LINE
  5
22E
100
AcDbEntity
  8
0
 62
0
370
-1
 48
1.0
  6
BYLAYER
100
AcDbLine
 10
104.8485021389179224
 20
65.4634690000000035
 30
0.0
 11
104.0485021389179394
 21
65.4634690000000035
 31
0.0
  0
LINE
  5
22F
100
AcDbEntity
  8
0
 62
0
370
-1
 48
1.0
  6
BYLAYER
100
AcDbLine
 10
104.0485021389179394
 20
65.4634690000000035
 30
0.0
 11
104.0485021389179394
 21
62.3643690000000106
 31
0.0
  0
LINE
  5
230
100
AcDbEntity
  8
0
 62
0
370
-1
 48
1.0
  6
BYLAYER
100
AcDbLine
 10
104.0485021389179394
 20
62.3643690000000106
 30
0.0
 11
104.8485021389179224
 21
62.3643690000000106
 31
0.0
  0
LINE
  5
231
100
AcDbEntity
  8
0
 62
0
370
-1
 48
1.0
  6
BYLAYER
100
AcDbLine
 10
104.8485021389179224
 20
62.3643690000000106
 30
0.0
 11
104.8485021389179224
 21
56.5625690000000034
 31
0.0
  0
LINE
  5
232
100
AcDbEntity
  8
0
 62
0
370
-1
 48
1.0
  6
BYLAYER
100
AcDbLine
 10
104.8485021389179224
 20
56.5625690000000034
 30
0.0
 11
104.0485021389179394
 21
56.5625690000000034
 31
0.0
  0
LINE
  5
233
100
AcDbEntity
  8
0
 62
0
370
-1
 48
1.0
  6
BYLAYER
100
AcDbLine
 10
104.0485021389179394
 20
56.5625690000000034
 30
0.0
 11
104.0485021389179394
 21
53.4619690000000034
 31
0.0
  0
LINE
  5
234
100
AcDbEntity
  8
0
 62
0
370
-1
 48
1.0
  6
BYLAYER
100
AcDbLine
 10
104.0485021389179394
 20
53.4619690000000034
 30
0.0
 11
104.8485021389179224
 21
53.4619690000000034
 31
0.0
  0
LINE
  5
235
100
AcDbEntity
  8
0
 62
0
370
-1
 48
1.0
  6
BYLAYER
100
AcDbLine
 10
104.8485021389179224
 20
53.4619690000000034
 30
0.0
 11
104.8485021389179224
 21
52.4629690000000082
 31
0.0
  0
LINE
  5
236
100
AcDbEntity
  8
0
 62
0
370
-1
 48
1.0
  6
BYLAYER
100
AcDbLine
 10
104.8485021389179224
 20
52.4629690000000082
 30
0.0
 11
118.8485021389179224
 21
52.4629690000000082
 31
0.0
  0
LINE
  5
237
100
AcDbEntity
  8
0
 62
0
370
-1
 48
1.0
  6
BYLAYER
100
AcDbLine
 10
118.8485021389179224
 20
52.4629690000000082
 30
0.0
 11
118.8485021389179224
 21
53.4619690000000034
 31
0.0
  0
LINE
  5
238
100
AcDbEntity
  8
0
 62
0
370
-1
 48
1.0
  6
BYLAYER
100
AcDbLine
 10
118.8485021389179224
 20
53.4619690000000034
 30
0.0
 11
119.6485021389179337
 21
53.4619690000000034
 31
0.0
  0
LINE
  5
239
100
AcDbEntity
  8
0
 62
0
370
-1
 48
1.0
  6
BYLAYER
100
AcDbLine
 10
119.6485021389179337
 20
53.4619690000000034
 30
0.0
 11
119.6485021389179337
 21
56.5625690000000034
 31
0.0
  0
LINE
  5
23A
100
AcDbEntity
  8
0
 62
0
370
-1
 48
1.0
  6
BYLAYER
100
AcDbLine
 10
119.6485021389179337
 20
56.5625690000000034
 30
0.0
 11
118.8485021389179224
 21
56.5625690000000034
 31
0.0
  0
LINE
  5
23B
100
AcDbEntity
  8
0
 62
0
370
-1
 48
1.0
  6
BYLAYER
100
AcDbLine
 10
118.8485021389179224
 20
56.5625690000000034
 30
0.0
 11
118.8485021389179224
 21
62.3643690000000106
 31
0.0
  0
LINE
  5
23C
100
AcDbEntity
  8
0
 62
0
370
-1
 48
1.0
  6
BYLAYER
100
AcDbLine
 10
118.8485021389179224
 20
62.3643690000000106
 30
0.0
 11
119.6485021389179337
 21
62.3643690000000106
 31
0.0
  0
LINE
  5
23D
100
AcDbEntity
  8
0
 62
0
370
-1
 48
1.0
  6
BYLAYER
100
AcDbLine
 10
119.6485021389179337
 20
62.3643690000000106
 30
0.0
 11
119.6485021389179337
 21
65.4634690000000035
 31
0.0
  0
LINE
  5
23E
100
AcDbEntity
  8
0
 62
0
370
-1
 48
1.0
  6
BYLAYER
100
AcDbLine
 10
119.6485021389179337
 20
65.4634690000000035
 30
0.0
 11
118.8485021389179224
 21
65.4634690000000035
 31
0.0
  0
LINE
  5
23F
100
AcDbEntity
  8
0
 62
0
370
-1
 48
1.0
  6
BYLAYER
100
AcDbLine
 10
118.8485021389179224
 20
65.4634690000000035
 30
0.0
 11
118.8485021389179224
 21
66.4639690000000058
 31
0.0
  0
LINE
  5
240
100
AcDbEntity
  8
0
 62
0
370
-1
 48
1.0
  6
BYLAYER
100
AcDbLine
 10
118.8485021389179224
 20
66.4639690000000058
 30
0.0
 11
104.8485021389179224
 21
66.4639690000000058
 31
0.0
  0
LINE
  5
241
100
AcDbEntity
  8
0
 62
0
370
-1
 48
1.0
  6
BYLAYER
100
AcDbLine
 10
123.8985021389179337
 20
66.4639690000000058
 30
0.0
 11
123.8985021389179337
 21
65.4634690000000035
 31
0.0
  0
LINE
  5
242
100
AcDbEntity
  8
0
 62
0
370
-1
 48
1.0
  6
BYLAYER
100
AcDbLine
 10
123.8985021389179337
 20
65.4634690000000035
 30
0.0
 11
123.0985021389179224
 21
65.4634690000000035
 31
0.0
  0
LINE
  5
243
100
AcDbEntity
  8
0
 62
0
370
-1
 48
1.0
  6
BYLAYER
100
AcDbLine
 10
123.0985021389179224
 20
65.4634690000000035
 30
0.0
 11
123.0985021389179224
 21
62.3643690000000106
 31
0.0
  0
LINE
  5
244
100
AcDbEntity
  8
0
 62
0
370
-1
 48
1.0
  6
BYLAYER
100
AcDbLine
 10
123.0985021389179224
 20
62.3643690000000106
 30
0.0
 11
123.8985021389179337
 21
62.3643690000000106
 31
0.0
  0
LINE
  5
245
100
AcDbEntity
  8
0
 62
0
370
-1
 48
1.0
  6
BYLAYER
100
AcDbLine
 10
123.8985021389179337
 20
62.3643690000000106
 30
0.0
 11
123.8985021389179337
 21
56.5625690000000034
 31
0.0
  0
LINE
  5
246
100
AcDbEntity
  8
0
 62
0
370
-1
 48
1.0
  6
BYLAYER
100
AcDbLine
 10
123.8985021389179337
 20
56.5625690000000034
 30
0.0
 11
123.0985021389179224
 21
56.5625690000000034
 31
0.0
  0
LINE
  5
247
100
AcDbEntity
  8
0
 62
0
370
-1
 48
1.0
  6
BYLAYER
100
AcDbLine
 10
123.0985021389179224
 20
56.5625690000000034
 30
0.0
 11
123.0985021389179224
 21
53.4619690000000034
 31
0.0
  0
LINE
  5
248
100
AcDbEntity
  8
0
 62
0
370
-1
 48
1.0
  6
BYLAYER
100
AcDbLine
 10
123.0985021389179224
 20
53.4619690000000034
 30
0.0
 11
123.8985021389179337
 21
53.4619690000000034
 31
0.0
  0
LINE
  5
249
100
AcDbEntity
  8
0
 62
0
370
-1
 48
1.0
  6
BYLAYER
100
AcDbLine
 10
123.8985021389179337
 20
53.4619690000000034
 30
0.0
 11
123.8985021389179337
 21
52.4629690000000082
 31
0.0
  0
LINE
  5
24A
100
AcDbEntity
  8
0
 62
0
370
-1
 48
1.0
  6
BYLAYER
100
AcDbLine
 10
123.8985021389179337
 20
52.4629690000000082
 30
0.0
 11
137.8985021389179337
 21
52.4629690000000082
 31
0.0
  0
LINE
  5
24B
100
AcDbEntity
  8
0
 62
0
370
-1
 48
1.0
  6
BYLAYER
100
AcDbLine
 10
137.8985021389179337
 20
52.4629690000000082
 30
0.0
 11
137.8985021389179337
 21
53.4619690000000034
 31
0.0
  0
LINE
  5
24C
100
AcDbEntity
  8
0
 62
0
370
-1
 48
1.0
  6
BYLAYER
100
AcDbLine
 10
137.8985021389179337
 20
53.4619690000000034
 30
0.0
 11
138.6985021389179167
 21
53.4619690000000034
 31
0.0
  0
LINE
  5
24D
100
AcDbEntity
  8
0
 62
0
370
-1
 48
1.0
  6
BYLAYER
100
AcDbLine
 10
138.6985021389179167
 20
53.4619690000000034
 30
0.0
 11
138.6985021389179167
 21
56.5625690000000034
 31
0.0
  0
LINE
  5
24E
100
AcDbEntity
  8
0
 62
0
370
-1
 48
1.0
  6
BYLAYER
100
AcDbLine
 10
138.6985021389179167
 20
56.5625690000000034
 30
0.0
 11
137.8985021389179337
 21
56.5625690000000034
 31
0.0
  0
LINE
  5
24F
100
AcDbEntity
  8
0
 62
0
370
-1
 48
1.0
  6
BYLAYER
100
AcDbLine
 10
137.8985021389179337
 20
56.5625690000000034
 30
0.0
 11
137.8985021389179337
 21
62.3643690000000106
 31
0.0
  0
LINE
  5
250
100
AcDbEntity
  8
0
 62
0
370
-1
 48
1.0
  6
BYLAYER
100
AcDbLine
 10
137.8985021389179337
 20
62.3643690000000106
 30
0.0
 11
138.6985021389179167
 21
62.3643690000000106
 31
0.0
  0
LINE
  5
251
100
AcDbEntity
  8
0
 62
0
370
-1
 48
1.0
  6
BYLAYER
100
AcDbLine
 10
138.6985021389179167
 20
62.3643690000000106
 30
0.0
 11
138.6985021389179167
 21
65.4634690000000035
 31
0.0
  0
LINE
  5
252
100
AcDbEntity
  8
0
 62
0
370
-1
 48
1.0
  6
BYLAYER
100
AcDbLine
 10
138.6985021389179167
 20
65.4634690000000035
 30
0.0
 11
137.8985021389179337
 21
65.4634690000000035
 31
0.0
  0
LINE
  5
253
100
AcDbEntity
  8
0
 62
0
370
-1
 48
1.0
  6
BYLAYER
100
AcDbLine
 10
137.8985021389179337
 20
65.4634690000000035
 30
0.0
 11
137.8985021389179337
 21
66.4639690000000058
 31
0.0
  0
LINE
  5
254
100
AcDbEntity
  8
0
 62
0
370
-1
 48
1.0
  6
BYLAYER
100
AcDbLine
 10
137.8985021389179337
 20
66.4639690000000058
 30
0.0
 11
123.8985021389179337
 21
66.4639690000000058
 31
0.0
  0
LINE
  5
255
100
AcDbEntity
  8
0
 62
0
370
-1
 48
1.0
  6
BYLAYER
100
AcDbLine
 10
142.9485021389179167
 20
66.4639690000000058
 30
0.0
 11
142.9485021389179167
 21
65.4634690000000035
 31
0.0
  0
LINE
  5
256
100
AcDbEntity
  8
0
 62
0
370
-1
 48
1.0
  6
BYLAYER
100
AcDbLine
 10
142.9485021389179167
 20
65.4634690000000035
 30
0.0
 11
142.1485021389179337
 21
65.4634690000000035
 31
0.0
  0
LINE
  5
257
100
AcDbEntity
  8
0
 62
0
370
-1
 48
1.0
  6
BYLAYER
100
AcDbLine
 10
142.1485021389179337
 20
65.4634690000000035
 30
0.0
 11
142.1485021389179337
 21
62.3643690000000106
 31
0.0
  0
LINE
  5
258
100
AcDbEntity
  8
0
 62
0
370
-1
 48
1.0
  6
BYLAYER
100
AcDbLine
 10
142.1485021389179337
 20
62.3643690000000106
 30
0.0
 11
142.9485021389179167
 21
62.3643690000000106
 31
0.0
  0
LINE
  5
259
100
AcDbEntity
  8
0
 62
0
370
-1
 48
1.0
  6
BYLAYER
100
AcDbLine
 10
142.9485021389179167
 20
62.3643690000000106
 30
0.0
 11
142.9485021389179167
 21
56.5625690000000034
 31
0.0
  0
LINE
  5
25A
100
AcDbEntity
  8
0
 62
0
370
-1
 48
1.0
  6
BYLAYER
100
AcDbLine
 10
142.9485021389179167
 20
56.5625690000000034
 30
0.0
 11
142.1485021389179337
 21
56.5625690000000034
 31
0.0
  0
LINE
  5
25B
100
AcDbEntity
  8
0
 62
0
370
-1
 48
1.0
  6
BYLAYER
100
AcDbLine
 10
142.1485021389179337
 20
56.5625690000000034
 30
0.0
 11
142.1485021389179337
 21
53.4619690000000034
 31
0.0
  0
LINE
  5
25C
100
AcDbEntity
  8
0
 62
0
370
-1
 48
1.0
  6
BYLAYER
100
AcDbLine
 10
142.1485021389179337
 20
53.4619690000000034
 30
0.0
 11
142.9485021389179167
 21
53.4619690000000034
 31
0.0
  0
LINE
  5
25D
100
AcDbEntity
  8
0
 62
0
370
-1
 48
1.0
  6
BYLAYER
100
AcDbLine
 10
142.9485021389179167
 20
53.4619690000000034
 30
0.0
 11
142.9485021389179167
 21
52.4629690000000082
 31
0.0
  0
LINE
  5
25E
100
AcDbEntity
  8
0
 62
0
370
-1
 48
1.0
  6
BYLAYER
100
AcDbLine
 10
142.9485021389179167
 20
52.4629690000000082
 30
0.0
 11
156.9485021389179167
 21
52.4629690000000082
 31
0.0
  0
LINE
  5
25F
100
AcDbEntity
  8
0
 62
0
370
-1
 48
1.0
  6
BYLAYER
100
AcDbLine
 10
156.9485021389179167
 20
52.4629690000000082
 30
0.0
 11
156.9485021389179167
 21
53.4619690000000034
 31
0.0
  0
LINE
  5
260
100
AcDbEntity
  8
0
 62
0
370
-1
 48
1.0
  6
BYLAYER
100
AcDbLine
 10
156.9485021389179167
 20
53.4619690000000034
 30
0.0
 11
157.7485021389179281
 21
53.4619690000000034
 31
0.0
  0
LINE
  5
261
100
AcDbEntity
  8
0
 62
0
370
-1
 48
1.0
  6
BYLAYER
100
AcDbLine
 10
157.7485021389179281
 20
53.4619690000000034
 30
0.0
 11
157.7485021389179281
 21
56.5625690000000034
 31
0.0
  0
LINE
  5
262
100
AcDbEntity
  8
0
 62
0
370
-1
 48
1.0
  6
BYLAYER
100
AcDbLine
 10
157.7485021389179281
 20
56.5625690000000034
 30
0.0
 11
156.9485021389179167
 21
56.5625690000000034
 31
0.0
  0
LINE
  5
263
100
AcDbEntity
  8
0
 62
0
370
-1
 48
1.0
  6
BYLAYER
100
AcDbLine
 10
156.9485021389179167
 20
56.5625690000000034
 30
0.0
 11
156.9485021389179167
 21
62.3643690000000106
 31
0.0
  0
LINE
  5
264
100
AcDbEntity
  8
0
 62
0
370
-1
 48
1.0
  6
BYLAYER
100
AcDbLine
 10
156.9485021389179167
 20
62.3643690000000106
 30
0.0
 11
157.7485021389179281
 21
62.3643690000000106
 31
0.0
  0
LINE
  5
265
100
AcDbEntity
  8
0
 62
0
370
-1
 48
1.0
  6
BYLAYER
100
AcDbLine
 10
157.7485021389179281
 20
62.3643690000000106
 30
0.0
 11
157.7485021389179281
 21
65.4634690000000035
 31
0.0
  0
LINE
  5
266
100
AcDbEntity
  8
0
 62
0
370
-1
 48
1.0
  6
BYLAYER
100
AcDbLine
 10
157.7485021389179281
 20
65.4634690000000035
 30
0.0
 11
156.9485021389179167
 21
65.4634690000000035
 31
0.0
  0
LINE
  5
267
100
AcDbEntity
  8
0
 62
0
370
-1
 48
1.0
  6
BYLAYER
100
AcDbLine
 10
156.9485021389179167
 20
65.4634690000000035
 30
0.0
 11
156.9485021389179167
 21
66.4639690000000058
 31
0.0
  0
LINE
  5
268
100
AcDbEntity
  8
0
 62
0
370
-1
 48
1.0
  6
BYLAYER
100
AcDbLine
 10
156.9485021389179167
 20
66.4639690000000058
 30
0.0
 11
142.9485021389179167
 21
66.4639690000000058
 31
0.0
  0
LINE
  5
269
100
AcDbEntity
  8
0
 62
0
370
-1
 48
1.0
  6
BYLAYER
100
AcDbLine
 10
161.9985021389179281
 20
66.4639690000000058
 30
0.0
 11
161.9985021389179281
 21
65.4634690000000035
 31
0.0
  0
LINE
  5
26A
100
AcDbEntity
  8
0
 62
0
370
-1
 48
1.0
  6
BYLAYER
100
AcDbLine
 10
161.9985021389179281
 20
65.4634690000000035
 30
0.0
 11
161.1985021389179167
 21
65.4634690000000035
 31
0.0
  0
LINE
  5
26B
100
AcDbEntity
  8
0
 62
0
370
-1
 48
1.0
  6
BYLAYER
100
AcDbLine
 10
161.1985021389179167
 20
65.4634690000000035
 30
0.0
 11
161.1985021389179167
 21
62.3643690000000106
 31
0.0
  0
LINE
  5
26C
100
AcDbEntity
  8
0
 62
0
370
-1
 48
1.0
  6
BYLAYER
100
AcDbLine
 10
161.1985021389179167
 20
62.3643690000000106
 30
0.0
 11
161.9985021389179281
 21
62.3643690000000106
 31
0.0
  0
LINE
  5
26D
100
AcDbEntity
  8
0
 62
0
370
-1
 48
1.0
  6
BYLAYER
100
AcDbLine
 10
161.9985021389179281
 20
62.3643690000000106
 30
0.0
 11
161.9985021389179281
 21
56.5625690000000034
 31
0.0
  0
LINE
  5
26E
100
AcDbEntity
  8
0
 62
0
370
-1
 48
1.0
  6
BYLAYER
100
AcDbLine
 10
161.9985021389179281
 20
56.5625690000000034
 30
0.0
 11
161.1985021389179167
 21
56.5625690000000034
 31
0.0
  0
LINE
  5
26F
100
AcDbEntity
  8
0
 62
0
370
-1
 48
1.0
  6
BYLAYER
100
AcDbLine
 10
161.1985021389179167
 20
56.5625690000000034
 30
0.0
 11
161.1985021389179167
 21
53.4619690000000034
 31
0.0
  0
LINE
  5
270
100
AcDbEntity
  8
0
 62
0
370
-1
 48
1.0
  6
BYLAYER
100
AcDbLine
 10
161.1985021389179167
 20
53.4619690000000034
 30
0.0
 11
161.9985021389179281
 21
53.4619690000000034
 31
0.0
  0
LINE
  5
271
100
AcDbEntity
  8
0
 62
0
370
-1
 48
1.0
  6
BYLAYER
100
AcDbLine
 10
161.9985021389179281
 20
53.4619690000000034
 30
0.0
 11
161.9985021389179281
 21
52.4629690000000082
 31
0.0
  0
LINE
  5
272
100
AcDbEntity
  8
0
 62
0
370
-1
 48
1.0
  6
BYLAYER
100
AcDbLine
 10
161.9985021389179281
 20
52.4629690000000082
 30
0.0
 11
175.9985021389179281
 21
52.4629690000000082
 31
0.0
  0
LINE
  5
273
100
AcDbEntity
  8
0
 62
0
370
-1
 48
1.0
  6
BYLAYER
100
AcDbLine
 10
175.9985021389179281
 20
52.4629690000000082
 30
0.0
 11
175.9985021389179281
 21
53.4619690000000034
 31
0.0
  0
LINE
  5
274
100
AcDbEntity
  8
0
 62
0
370
-1
 48
1.0
  6
BYLAYER
100
AcDbLine
 10
175.9985021389179281
 20
53.4619690000000034
 30
0.0
 11
176.7985021389179394
 21
53.4619690000000034
 31
0.0
  0
LINE
  5
275
100
AcDbEntity
  8
0
 62
0
370
-1
 48
1.0
  6
BYLAYER
100
AcDbLine
 10
176.7985021389179394
 20
53.4619690000000034
 30
0.0
 11
176.7985021389179394
 21
56.5625690000000034
 31
0.0
  0
LINE
  5
276
100
AcDbEntity
  8
0
 62
0
370
-1
 48
1.0
  6
BYLAYER
100
AcDbLine
 10
176.7985021389179394
 20
56.5625690000000034
 30
0.0
 11
175.9985021389179281
 21
56.5625690000000034
 31
0.0
  0
LINE
  5
277
100
AcDbEntity
  8
0
 62
0
370
-1
 48
1.0
  6
BYLAYER
100
AcDbLine
 10
175.9985021389179281
 20
56.5625690000000034
 30
0.0
 11
175.9985021389179281
 21
62.3643690000000106
 31
0.0
  0
LINE
  5
278
100
AcDbEntity
  8
0
 62
0
370
-1
 48
1.0
  6
BYLAYER
100
AcDbLine
 10
175.9985021389179281
 20
62.3643690000000106
 30
0.0
 11
176.7985021389179394
 21
62.3643690000000106
 31
0.0
  0
LINE
  5
279
100
AcDbEntity
  8
0
 62
0
370
-1
 48
1.0
  6
BYLAYER
100
AcDbLine
 10
176.7985021389179394
 20
62.3643690000000106
 30
0.0
 11
176.7985021389179394
 21
65.4634690000000035
 31
0.0
  0
LINE
  5
27A
100
AcDbEntity
  8
0
 62
0
370
-1
 48
1.0
  6
BYLAYER
100
AcDbLine
 10
176.7985021389179394
 20
65.4634690000000035
 30
0.0
 11
175.9985021389179281
 21
65.4634690000000035
 31
0.0
  0
LINE
  5
27B
100
AcDbEntity
  8
0
 62
0
370
-1
 48
1.0
  6
BYLAYER
100
AcDbLine
 10
175.9985021389179281
 20
65.4634690000000035
 30
0.0
 11
175.9985021389179281
 21
66.4639690000000058
 31
0.0
  0
LINE
  5
27C
100
AcDbEntity
  8
0
 62
0
370
-1
 48
1.0
  6
BYLAYER
100
AcDbLine
 10
175.9985021389179281
 20
66.4639690000000058
 30
0.0
 11
161.9985021389179281
 21
66.4639690000000058
 31
0.0
  0
LINE
  5
27D
100
AcDbEntity
  8
0
 62
0
370
-1
 48
1.0
  6
BYLAYER
100
AcDbLine
 10
181.0485021389179394
 20
66.4639690000000058
 30
0.0
 11
181.0485021389179394
 21
65.4634690000000035
 31
0.0
  0
LINE
  5
27E
100
AcDbEntity
  8
0
 62
0
370
-1
 48
1.0
  6
BYLAYER
100
AcDbLine
 10
181.0485021389179394
 20
65.4634690000000035
 30
0.0
 11
180.2485021389179281
 21
65.4634690000000035
 31
0.0
  0
LINE
  5
27F
100
AcDbEntity
  8
0
 62
0
370
-1
 48
1.0
  6
BYLAYER
100
AcDbLine
 10
180.2485021389179281
 20
65.4634690000000035
 30
0.0
 11
180.2485021389179281
 21
62.3643690000000106
 31
0.0
  0
LINE
  5
280
100
AcDbEntity
  8
0
 62
0
370
-1
 48
1.0
  6
BYLAYER
100
AcDbLine
 10
180.2485021389179281
 20
62.3643690000000106
 30
0.0
 11
181.0485021389179394
 21
62.3643690000000106
 31
0.0
  0
LINE
  5
281
100
AcDbEntity
  8
0
 62
0
370
-1
 48
1.0
  6
BYLAYER
100
AcDbLine
 10
181.0485021389179394
 20
62.3643690000000106
 30
0.0
 11
181.0485021389179394
 21
56.5625690000000034
 31
0.0
  0
LINE
  5
282
100
AcDbEntity
  8
0
 62
0
370
-1
 48
1.0
  6
BYLAYER
100
AcDbLine
 10
181.0485021389179394
 20
56.5625690000000034
 30
0.0
 11
180.2485021389179281
 21
56.5625690000000034
 31
0.0
  0
LINE
  5
283
100
AcDbEntity
  8
0
 62
0
370
-1
 48
1.0
  6
BYLAYER
100
AcDbLine
 10
180.2485021389179281
 20
56.5625690000000034
 30
0.0
 11
180.2485021389179281
 21
53.4619690000000034
 31
0.0
  0
LINE
  5
284
100
AcDbEntity
  8
0
 62
0
370
-1
 48
1.0
  6
BYLAYER
100
AcDbLine
 10
180.2485021389179281
 20
53.4619690000000034
 30
0.0
 11
181.0485021389179394
 21
53.4619690000000034
 31
0.0
  0
LINE
  5
285
100
AcDbEntity
  8
0
 62
0
370
-1
 48
1.0
  6
BYLAYER
100
AcDbLine
 10
181.0485021389179394
 20
53.4619690000000034
 30
0.0
 11
181.0485021389179394
 21
52.4629690000000082
 31
0.0
  0
LINE
  5
286
100
AcDbEntity
  8
0
 62
0
370
-1
 48
1.0
  6
BYLAYER
100
AcDbLine
 10
181.0485021389179394
 20
52.4629690000000082
 30
0.0
 11
195.0485021389179394
 21
52.4629690000000082
 31
0.0
  0
LINE
  5
287
100
AcDbEntity
  8
0
 62
0
370
-1
 48
1.0
  6
BYLAYER
100
AcDbLine
 10
195.0485021389179394
 20
52.4629690000000082
 30
0.0
 11
195.0485021389179394
 21
53.4619690000000034
 31
0.0
  0
LINE
  5
288
100
AcDbEntity
  8
0
 62
0
370
-1
 48
1.0
  6
BYLAYER
100
AcDbLine
 10
195.0485021389179394
 20
53.4619690000000034
 30
0.0
 11
195.8485021389179224
 21
53.4619690000000034
 31
0.0
  0
LINE
  5
289
100
AcDbEntity
  8
0
 62
0
370
-1
 48
1.0
  6
BYLAYER
100
AcDbLine
 10
195.8485021389179224
 20
53.4619690000000034
 30
0.0
 11
195.8485021389179224
 21
56.5625690000000034
 31
0.0
  0
LINE
  5
28A
100
AcDbEntity
  8
0
 62
0
370
-1
 48
1.0
  6
BYLAYER
100
AcDbLine
 10
195.8485021389179224
 20
56.5625690000000034
 30
0.0
 11
195.0485021389179394
 21
56.5625690000000034
 31
0.0
  0
LINE
  5
28B
100
AcDbEntity
  8
0
 62
0
370
-1
 48
1.0
  6
BYLAYER
100
AcDbLine
 10
195.0485021389179394
 20
56.5625690000000034
 30
0.0
 11
195.0485021389179394
 21
62.3643690000000106
 31
0.0
  0
LINE
  5
28C
100
AcDbEntity
  8
0
 62
0
370
-1
 48
1.0
  6
BYLAYER
100
AcDbLine
 10
195.0485021389179394
 20
62.3643690000000106
 30
0.0
 11
195.8485021389179224
 21
62.3643690000000106
 31
0.0
  0
LINE
  5
28D
100
AcDbEntity
  8
0
 62
0
370
-1
 48
1.0
  6
BYLAYER
100
AcDbLine
 10
195.8485021389179224
 20
62.3643690000000106
 30
0.0
 11
195.8485021389179224
 21
65.4634690000000035
 31
0.0
  0
LINE
  5
28E
100
AcDbEntity
  8
0
 62
0
370
-1
 48
1.0
  6
BYLAYER
100
AcDbLine
 10
195.8485021389179224
 20
65.4634690000000035
 30
0.0
 11
195.0485021389179394
 21
65.4634690000000035
 31
0.0
  0
LINE
  5
28F
100
AcDbEntity
  8
0
 62
0
370
-1
 48
1.0
  6
BYLAYER
100
AcDbLine
 10
195.0485021389179394
 20
65.4634690000000035
 30
0.0
 11
195.0485021389179394
 21
66.4639690000000058
 31
0.0
  0
LINE
  5
290
100
AcDbEntity
  8
0
 62
0
370
-1
 48
1.0
  6
BYLAYER
100
AcDbLine
 10
195.0485021389179394
 20
66.4639690000000058
 30
0.0
 11
181.0485021389179394
 21
66.4639690000000058
 31
0.0
  0
LINE
  5
291
100
AcDbEntity
  8
0
 62
0
370
-1
 48
1.0
  6
BYLAYER
100
AcDbLine
 10
200.0985021389179224
 20
66.4639690000000058
 30
0.0
 11
200.0985021389179224
 21
65.4634690000000035
 31
0.0
  0
LINE
  5
292
100
AcDbEntity
  8
0
 62
0
370
-1
 48
1.0
  6
BYLAYER
100
AcDbLine
 10
200.0985021389179224
 20
65.4634690000000035
 30
0.0
 11
199.2985021389179394
 21
65.4634690000000035
 31
0.0
  0
LINE
  5
293
100
AcDbEntity
  8
0
 62
0
370
-1
 48
1.0
  6
BYLAYER
100
AcDbLine
 10
199.2985021389179394
 20
65.4634690000000035
 30
0.0
 11
199.2985021389179394
 21
62.3643690000000106
 31
0.0
  0
LINE
  5
294
100
AcDbEntity
  8
0
 62
0
370
-1
 48
1.0
  6
BYLAYER
100
AcDbLine
 10
199.2985021389179394
 20
62.3643690000000106
 30
0.0
 11
200.0985021389179224
 21
62.3643690000000106
 31
0.0
  0
LINE
  5
295
100
AcDbEntity
  8
0
 62
0
370
-1
 48
1.0
  6
BYLAYER
100
AcDbLine
 10
200.0985021389179224
 20
62.3643690000000106
 30
0.0
 11
200.0985021389179224
 21
56.5625690000000034
 31
0.0
  0
LINE
  5
296
100
AcDbEntity
  8
0
 62
0
370
-1
 48
1.0
  6
BYLAYER
100
AcDbLine
 10
200.0985021389179224
 20
56.5625690000000034
 30
0.0
 11
199.2985021389179394
 21
56.5625690000000034
 31
0.0
  0
LINE
  5
297
100
AcDbEntity
  8
0
 62
0
370
-1
 48
1.0
  6
BYLAYER
100
AcDbLine
 10
199.2985021389179394
 20
56.5625690000000034
 30
0.0
 11
199.2985021389179394
 21
53.4619690000000034
 31
0.0
  0
LINE
  5
298
100
AcDbEntity
  8
0
 62
0
370
-1
 48
1.0
  6
BYLAYER
100
AcDbLine
 10
199.2985021389179394
 20
53.4619690000000034
 30
0.0
 11
200.0985021389179224
 21
53.4619690000000034
 31
0.0
  0
LINE
  5
299
100
AcDbEntity
  8
0
 62
0
370
-1
 48
1.0
  6
BYLAYER
100
AcDbLine
 10
200.0985021389179224
 20
53.4619690000000034
 30
0.0
 11
200.0985021389179224
 21
52.4629690000000082
 31
0.0
  0
LINE
  5
29A
100
AcDbEntity
  8
0
 62
0
370
-1
 48
1.0
  6
BYLAYER
100
AcDbLine
 10
200.0985021389179224
 20
52.4629690000000082
 30
0.0
 11
214.0985021389179224
 21
52.4629690000000082
 31
0.0
  0
LINE
  5
29B
100
AcDbEntity
  8
0
 62
0
370
-1
 48
1.0
  6
BYLAYER
100
AcDbLine
 10
214.0985021389179224
 20
52.4629690000000082
 30
0.0
 11
214.0985021389179224
 21
53.4619690000000034
 31
0.0
  0
LINE
  5
29C
100
AcDbEntity
  8
0
 62
0
370
-1
 48
1.0
  6
BYLAYER
100
AcDbLine
 10
214.0985021389179224
 20
53.4619690000000034
 30
0.0
 11
214.8985021389179337
 21
53.4619690000000034
 31
0.0
  0
LINE
  5
29D
100
AcDbEntity
  8
0
 62
0
370
-1
 48
1.0
  6
BYLAYER
100
AcDbLine
 10
214.8985021389179337
 20
53.4619690000000034
 30
0.0
 11
214.8985021389179337
 21
56.5625690000000034
 31
0.0
  0
LINE
  5
29E
100
AcDbEntity
  8
0
 62
0
370
-1
 48
1.0
  6
BYLAYER
100
AcDbLine
 10
214.8985021389179337
 20
56.5625690000000034
 30
0.0
 11
214.0985021389179224
 21
56.5625690000000034
 31
0.0
  0
LINE
  5
29F
100
AcDbEntity
  8
0
 62
0
370
-1
 48
1.0
  6
BYLAYER
100
AcDbLine
 10
214.0985021389179224
 20
56.5625690000000034
 30
0.0
 11
214.0985021389179224
 21
62.3643690000000106
 31
0.0
  0
LINE
  5
2A0
100
AcDbEntity
  8
0
 62
0
370
-1
 48
1.0
  6
BYLAYER
100
AcDbLine
 10
214.0985021389179224
 20
62.3643690000000106
 30
0.0
 11
214.8985021389179337
 21
62.3643690000000106
 31
0.0
  0
LINE
  5
2A1
100
AcDbEntity
  8
0
 62
0
370
-1
 48
1.0
  6
BYLAYER
100
AcDbLine
 10
214.8985021389179337
 20
62.3643690000000106
 30
0.0
 11
214.8985021389179337
 21
65.4634690000000035
 31
0.0
  0
LINE
  5
2A2
100
AcDbEntity
  8
0
 62
0
370
-1
 48
1.0
  6
BYLAYER
100
AcDbLine
 10
214.8985021389179337
 20
65.4634690000000035
 30
0.0
 11
214.0985021389179224
 21
65.4634690000000035
 31
0.0
  0
LINE
  5
2A3
100
AcDbEntity
  8
0
 62
0
370
-1
 48
1.0
  6
BYLAYER
100
AcDbLine
 10
214.0985021389179224
 20
65.4634690000000035
 30
0.0
 11
214.0985021389179224
 21
66.4639690000000058
 31
0.0
  0
LINE
  5
2A4
100
AcDbEntity
  8
0
 62
0
370
-1
 48
1.0
  6
BYLAYER
100
AcDbLine
 10
214.0985021389179224
 20
66.4639690000000058
 30
0.0
 11
200.0985021389179224
 21
66.4639690000000058
 31
0.0
  0
LINE
  5
2A5
100
AcDbEntity
  8
0
 62
0
370
-1
 48
1.0
  6
BYLAYER
100
AcDbLine
 10
219.1485021389179337
 20
66.4639690000000058
 30
0.0
 11
219.1485021389179337
 21
65.4634690000000035
 31
0.0
  0
LINE
  5
2A6
100
AcDbEntity
  8
0
 62
0
370
-1
 48
1.0
  6
BYLAYER
100
AcDbLine
 10
219.1485021389179337
 20
65.4634690000000035
 30
0.0
 11
218.3485021389179224
 21
65.4634690000000035
 31
0.0
  0
LINE
  5
2A7
100
AcDbEntity
  8
0
 62
0
370
-1
 48
1.0
  6
BYLAYER
100
AcDbLine
 10
218.3485021389179224
 20
65.4634690000000035
 30
0.0
 11
218.3485021389179224
 21
62.3643690000000106
 31
0.0
  0
LINE
  5
2A8
100
AcDbEntity
  8
0
 62
0
370
-1
 48
1.0
  6
BYLAYER
100
AcDbLine
 10
218.3485021389179224
 20
62.3643690000000106
 30
0.0
 11
219.1485021389179337
 21
62.3643690000000106
 31
0.0
  0
LINE
  5
2A9
100
AcDbEntity
  8
0
 62
0
370
-1
 48
1.0
  6
BYLAYER
100
AcDbLine
 10
219.1485021389179337
 20
62.3643690000000106
 30
0.0
 11
219.1485021389179337
 21
56.5625690000000034
 31
0.0
  0
LINE
  5
2AA
100
AcDbEntity
  8
0
 62
0
370
-1
 48
1.0
  6
BYLAYER
100
AcDbLine
 10
219.1485021389179337
 20
56.5625690000000034
 30
0.0
 11
218.3485021389179224
 21
56.5625690000000034
 31
0.0
  0
LINE
  5
2AB
100
AcDbEntity
  8
0
 62
256
370
-1
 48
1.0
  6
BYLAYER
100
AcDbLine
 10
21.503542138917922
 20
52.4618689999999859
 30
0.0
 11
35.5030421389179196
 21
52.4618689999999859
 31
0.0
  0
LINE
  5
2AC
100
AcDbEntity
  8
0
 62
0
370
-1
 48
1.0
  6
BYLAYER
100
AcDbLine
 10
218.3485021389179224
 20
56.5625690000000034
 30
0.0
 11
218.3485021389179224
 21
53.4619690000000034
 31
0.0
  0
LINE
  5
2AD
100
AcDbEntity
  8
0
 62
256
370
-1
 48
1.0
  6
BYLAYER
100
AcDbLine
 10
35.5030421389179196
 20
52.4618689999999859
 30
0.0
 11
35.5030421389179196
 21
53.4622689999999707
 31
0.0
  0
LINE
  5
2AE
100
AcDbEntity
  8
0
 62
0
370
-1
 48
1.0
  6
BYLAYER
100
AcDbLine
 10
218.3485021389179224
 20
53.4619690000000034
 30
0.0
 11
219.1485021389179337
 21
53.4619690000000034
 31
0.0
  0
LINE
  5
2AF
100
AcDbEntity
  8
0
 62
256
370
-1
 48
1.0
  6
BYLAYER
100
AcDbLine
 10
35.5030421389179196
 20
53.4622689999999707
 30
0.0
 11
36.3036421389179225
 21
53.4622689999999707
 31
0.0
  0
LINE
  5
2B0
100
AcDbEntity
  8
0
 62
0
370
-1
 48
1.0
  6
BYLAYER
100
AcDbLine
 10
219.1485021389179337
 20
53.4619690000000034
 30
0.0
 11
219.1485021389179337
 21
52.4629690000000082
 31
0.0
  0
LINE
  5
2B1
100
AcDbEntity
  8
0
 62
256
370
-1
 48
1.0
  6
BYLAYER
100
AcDbLine
 10
36.3036421389179225
 20
53.4622689999999707
 30
0.0
 11
36.3036421389179225
 21
56.562868999999985
 31
0.0
  0
LINE
  5
2B2
100
AcDbEntity
  8
0
 62
0
370
-1
 48
1.0
  6
BYLAYER
100
AcDbLine
 10
219.1485021389179337
 20
52.4629690000000082
 30
0.0
 11
233.1485021389179337
 21
52.4629690000000082
 31
0.0
  0
LINE
  5
2B3
100
AcDbEntity
  8
0
 62
256
370
-1
 48
1.0
  6
BYLAYER
100
AcDbLine
 10
36.3036421389179225
 20
56.562868999999985
 30
0.0
 11
35.5030421389179196
 21
56.562868999999985
 31
0.0
  0
LINE
  5
2B4
100
AcDbEntity
  8
0
 62
0
370
-1
 48
1.0
  6
BYLAYER
100
AcDbLine
 10
233.1485021389179337
 20
52.4629690000000082
 30
0.0
 11
233.1485021389179337
 21
53.4619690000000034
 31
0.0
  0
LINE
  5
2B5
100
AcDbEntity
  8
0
 62
256
370
-1
 48
1.0
  6
BYLAYER
100
AcDbLine
 10
35.5030421389179196
 20
56.562868999999985
 30
0.0
 11
35.5030421389179196
 21
62.3614689999999783
 31
0.0
  0
LINE
  5
2B6
100
AcDbEntity
  8
0
 62
0
370
-1
 48
1.0
  6
BYLAYER
100
AcDbLine
 10
233.1485021389179337
 20
53.4619690000000034
 30
0.0
 11
233.9485021389179167
 21
53.4619690000000034
 31
0.0
  0
LINE
  5
2B7
100
AcDbEntity
  8
0
 62
256
370
-1
 48
1.0
  6
BYLAYER
100
AcDbLine
 10
35.5030421389179196
 20
62.3614689999999783
 30
0.0
 11
36.3036421389179225
 21
62.3614689999999783
 31
0.0
  0
LINE
  5
2B8
100
AcDbEntity
  8
0
 62
0
370
-1
 48
1.0
  6
BYLAYER
100
AcDbLine
 10
233.9485021389179167
 20
53.4619690000000034
 30
0.0
 11
233.9485021389179167
 21
56.5625690000000034
 31
0.0
  0
LINE
  5
2B9
100
AcDbEntity
  8
0
 62
256
370
-1
 48
1.0
  6
BYLAYER
100
AcDbLine
 10
36.3036421389179225
 20
62.3614689999999783
 30
0.0
 11
36.3036421389179225
 21
65.4620689999999712
 31
0.0
  0
LINE
  5
2BA
100
AcDbEntity
  8
0
 62
0
370
-1
 48
1.0
  6
BYLAYER
100
AcDbLine
 10
233.9485021389179167
 20
56.5625690000000034
 30
0.0
 11
233.1485021389179337
 21
56.5625690000000034
 31
0.0
  0
LINE
  5
2BB
100
AcDbEntity
  8
0
 62
256
370
-1
 48
1.0
  6
BYLAYER
100
AcDbLine
 10
36.3036421389179225
 20
65.4620689999999712
 30
0.0
 11
35.5030421389179196
 21
65.4620689999999712
 31
0.0
  0
LINE
  5
2BC
100
AcDbEntity
  8
0
 62
0
370
-1
 48
1.0
  6
BYLAYER
100
AcDbLine
 10
233.1485021389179337
 20
56.5625690000000034
 30
0.0
 11
233.1485021389179337
 21
62.3643690000000106
 31
0.0
  0
LINE
  5
2BD
100
AcDbEntity
  8
0
 62
256
370
-1
 48
1.0
  6
BYLAYER
100
AcDbLine
 10
35.5030421389179196
 20
65.4620689999999712
 30
0.0
 11
35.5030421389179196
 21
66.4625689999999878
 31
0.0
  0
LINE
  5
2BE
100
AcDbEntity
  8
0
 62
0
370
-1
 48
1.0
  6
BYLAYER
100
AcDbLine
 10
233.1485021389179337
 20
62.3643690000000106
 30
0.0
 11
233.9485021389179167
 21
62.3643690000000106
 31
0.0
  0
LINE
  5
2BF
100
AcDbEntity
  8
0
 62
256
370
-1
 48
1.0
  6
BYLAYER
100
AcDbLine
 10
35.5030421389179196
 20
66.4625689999999878
 30
0.0
 11
21.503542138917922
 21
66.4625689999999878
 31
0.0
  0
LINE
  5
2C0
100
AcDbEntity
  8
0
 62
0
370
-1
 48
1.0
  6
BYLAYER
100
AcDbLine
 10
233.9485021389179167
 20
62.3643690000000106
 30
0.0
 11
233.9485021389179167
 21
65.4634690000000035
 31
0.0
  0
LINE
  5
2C1
100
AcDbEntity
  8
0
 62
0
370
-1
 48
1.0
  6
BYLAYER
100
AcDbLine
 10
233.9485021389179167
 20
65.4634690000000035
 30
0.0
 11
233.1485021389179337
 21
65.4634690000000035
 31
0.0
  0
LINE
  5
2C2
100
AcDbEntity
  8
0
 62
0
370
-1
 48
1.0
  6
BYLAYER
100
AcDbLine
 10
233.1485021389179337
 20
65.4634690000000035
 30
0.0
 11
233.1485021389179337
 21
66.4639690000000058
 31
0.0
  0
LINE
  5
2C3
100
AcDbEntity
  8
0
 62
0
370
-1
 48
1.0
  6
BYLAYER
100
AcDbLine
 10
233.1485021389179337
 20
66.4639690000000058
 30
0.0
 11
219.1485021389179337
 21
66.4639690000000058
 31
0.0
  0
LINE
  5
2C4
100
AcDbEntity
  8
0
 62
0
370
-1
 48
1.0
  6
BYLAYER
100
AcDbLine
 10
238.1985021389179167
 20
66.4639690000000058
 30
0.0
 11
238.1985021389179167
 21
65.4634690000000035
 31
0.0
  0
LINE
  5
2C5
100
AcDbEntity
  8
0
 62
0
370
-1
 48
1.0
  6
BYLAYER
100
AcDbLine
 10
238.1985021389179167
 20
65.4634690000000035
 30
0.0
 11
237.3985021389179337
 21
65.4634690000000035
 31
0.0
  0
LINE
  5
2C6
100
AcDbEntity
  8
0
 62
0
370
-1
 48
1.0
  6
BYLAYER
100
AcDbLine
 10
237.3985021389179337
 20
65.4634690000000035
 30
0.0
 11
237.3985021389179337
 21
62.3643690000000106
 31
0.0
  0
LINE
  5
2C7
100
AcDbEntity
  8
0
 62
0
370
-1
 48
1.0
  6
BYLAYER
100
AcDbLine
 10
237.3985021389179337
 20
62.3643690000000106
 30
0.0
 11
238.1985021389179167
 21
62.3643690000000106
 31
0.0
  0
LINE
  5
2C8
100
AcDbEntity
  8
0
 62
0
370
-1
 48
1.0
  6
BYLAYER
100
AcDbLine
 10
238.1985021389179167
 20
62.3643690000000106
 30
0.0
 11
238.1985021389179167
 21
56.5625690000000034
 31
0.0
  0
LINE
  5
2C9
100
AcDbEntity
  8
0
 62
0
370
-1
 48
1.0
  6
BYLAYER
100
AcDbLine
 10
238.1985021389179167
 20
56.5625690000000034
 30
0.0
 11
237.3985021389179337
 21
56.5625690000000034
 31
0.0
  0
LINE
  5
2CA
100
AcDbEntity
  8
0
 62
0
370
-1
 48
1.0
  6
BYLAYER
100
AcDbLine
 10
237.3985021389179337
 20
56.5625690000000034
 30
0.0
 11
237.3985021389179337
 21
53.4619690000000034
 31
0.0
  0
LINE
  5
2CB
100
AcDbEntity
  8
0
 62
0
370
-1
 48
1.0
  6
BYLAYER
100
AcDbLine
 10
237.3985021389179337
 20
53.4619690000000034
 30
0.0
 11
238.1985021389179167
 21
53.4619690000000034
 31
0.0
  0
LINE
  5
2CC
100
AcDbEntity
  8
0
 62
0
370
-1
 48
1.0
  6
BYLAYER
100
AcDbLine
 10
238.1985021389179167
 20
53.4619690000000034
 30
0.0
 11
238.1985021389179167
 21
52.4629690000000082
 31
0.0
  0
LINE
  5
2CD
100
AcDbEntity
  8
0
 62
0
370
-1
 48
1.0
  6
BYLAYER
100
AcDbLine
 10
238.1985021389179167
 20
52.4629690000000082
 30
0.0
 11
252.1985021389179451
 21
52.4629690000000082
 31
0.0
  0
LINE
  5
2CE
100
AcDbEntity
  8
0
 62
0
370
-1
 48
1.0
  6
BYLAYER
100
AcDbLine
 10
252.1985021389179451
 20
52.4629690000000082
 30
0.0
 11
252.1985021389179451
 21
53.4619690000000034
 31
0.0
  0
LINE
  5
2CF
100
AcDbEntity
  8
0
 62
0
370
-1
 48
1.0
  6
BYLAYER
100
AcDbLine
 10
252.1985021389179451
 20
53.4619690000000034
 30
0.0
 11
252.9985021389178996
 21
53.4619690000000034
 31
0.0
  0
LINE
  5
2D0
100
AcDbEntity
  8
0
 62
0
370
-1
 48
1.0
  6
BYLAYER
100
AcDbLine
 10
252.9985021389178996
 20
53.4619690000000034
 30
0.0
 11
252.9985021389178996
 21
56.5625690000000034
 31
0.0
  0
LINE
  5
2D1
100
AcDbEntity
  8
0
 62
0
370
-1
 48
1.0
  6
BYLAYER
100
AcDbLine
 10
252.9985021389178996
 20
56.5625690000000034
 30
0.0
 11
252.1985021389179451
 21
56.5625690000000034
 31
0.0
  0
LINE
  5
2D2
100
AcDbEntity
  8
0
 62
0
370
-1
 48
1.0
  6
BYLAYER
100
AcDbLine
 10
252.1985021389179451
 20
56.5625690000000034
 30
0.0
 11
252.1985021389179451
 21
62.3643690000000106
 31
0.0
  0
LINE
  5
2D3
100
AcDbEntity
  8
0
 62
0
370
-1
 48
1.0
  6
BYLAYER
100
AcDbLine
 10
252.1985021389179451
 20
62.3643690000000106
 30
0.0
 11
252.9985021389178996
 21
62.3643690000000106
 31
0.0
  0
LINE
  5
2D4
100
AcDbEntity
  8
0
 62
0
370
-1
 48
1.0
  6
BYLAYER
100
AcDbLine
 10
252.9985021389178996
 20
62.3643690000000106
 30
0.0
 11
252.9985021389178996
 21
65.4634690000000035
 31
0.0
  0
LINE
  5
2D5
100
AcDbEntity
  8
0
 62
0
370
-1
 48
1.0
  6
BYLAYER
100
AcDbLine
 10
252.9985021389178996
 20
65.4634690000000035
 30
0.0
 11
252.1985021389179451
 21
65.4634690000000035
 31
0.0
  0
LINE
  5
2D6
100
AcDbEntity
  8
0
 62
0
370
-1
 48
1.0
  6
BYLAYER
100
AcDbLine
 10
252.1985021389179451
 20
65.4634690000000035
 30
0.0
 11
252.1985021389179451
 21
66.4639690000000058
 31
0.0
  0
LINE
  5
2D7
100
AcDbEntity
  8
0
 62
0
370
-1
 48
1.0
  6
BYLAYER
100
AcDbLine
 10
252.1985021389179451
 20
66.4639690000000058
 30
0.0
 11
238.1985021389179167
 21
66.4639690000000058
 31
0.0
  0
LINE
  5
2D8
100
AcDbEntity
  8
0
 62
0
370
-1
 48
1.0
  6
BYLAYER
100
AcDbLine
 10
19.1237021389179347
 20
85.513969000000003
 30
0.0
 11
19.1237021389179347
 21
84.5134690000000006
 31
0.0
  0
LINE
  5
2D9
100
AcDbEntity
  8
0
 62
0
370
-1
 48
1.0
  6
BYLAYER
100
AcDbLine
 10
19.1237021389179347
 20
84.5134690000000006
 30
0.0
 11
18.3230021389179356
 21
84.5134690000000006
 31
0.0
  0
LINE
  5
2DA
100
AcDbEntity
  8
0
 62
0
370
-1
 48
1.0
  6
BYLAYER
100
AcDbLine
 10
18.3230021389179356
 20
84.5134690000000006
 30
0.0
 11
18.3230021389179356
 21
81.4143690000000078
 31
0.0
  0
LINE
  5
2DB
100
AcDbEntity
  8
0
 62
0
370
-1
 48
1.0
  6
BYLAYER
100
AcDbLine
 10
18.3230021389179356
 20
81.4143690000000078
 30
0.0
 11
19.1237021389179347
 21
81.4143690000000078
 31
0.0
  0
LINE
  5
2DC
100
AcDbEntity
  8
0
 62
0
370
-1
 48
1.0
  6
BYLAYER
100
AcDbLine
 10
19.1237021389179347
 20
81.4143690000000078
 30
0.0
 11
19.1237021389179347
 21
75.6125690000000077
 31
0.0
  0
LINE
  5
2DD
100
AcDbEntity
  8
0
 62
0
370
-1
 48
1.0
  6
BYLAYER
100
AcDbLine
 10
19.1237021389179347
 20
75.6125690000000077
 30
0.0
 11
18.3230021389179356
 21
75.6125690000000077
 31
0.0
  0
LINE
  5
2DE
100
AcDbEntity
  8
0
 62
0
370
-1
 48
1.0
  6
BYLAYER
100
AcDbLine
 10
18.3230021389179356
 20
75.6125690000000077
 30
0.0
 11
18.3230021389179356
 21
72.5119690000000077
 31
0.0
  0
LINE
  5
2DF
100
AcDbEntity
  8
0
 62
0
370
-1
 48
1.0
  6
BYLAYER
100
AcDbLine
 10
18.3230021389179356
 20
72.5119690000000077
 30
0.0
 11
19.1237021389179347
 21
72.5119690000000077
 31
0.0
  0
LINE
  5
2E0
100
AcDbEntity
  8
0
 62
0
370
-1
 48
1.0
  6
BYLAYER
100
AcDbLine
 10
19.1237021389179347
 20
72.5119690000000077
 30
0.0
 11
19.1237021389179347
 21
71.5129690000000124
 31
0.0
  0
LINE
  5
2E1
100
AcDbEntity
  8
0
 62
0
370
-1
 48
1.0
  6
BYLAYER
100
AcDbLine
 10
19.1237021389179347
 20
71.5129690000000124
 30
0.0
 11
33.1232021389179323
 21
71.5129690000000124
 31
0.0
  0
LINE
  5
2E2
100
AcDbEntity
  8
0
 62
0
370
-1
 48
1.0
  6
BYLAYER
100
AcDbLine
 10
33.1232021389179323
 20
71.5129690000000124
 30
0.0
 11
33.1232021389179323
 21
72.5119690000000077
 31
0.0
  0
LINE
  5
2E3
100
AcDbEntity
  8
0
 62
0
370
-1
 48
1.0
  6
BYLAYER
100
AcDbLine
 10
33.1232021389179323
 20
72.5119690000000077
 30
0.0
 11
33.9236021389179356
 21
72.5119690000000077
 31
0.0
  0
LINE
  5
2E4
100
AcDbEntity
  8
0
 62
0
370
-1
 48
1.0
  6
BYLAYER
100
AcDbLine
 10
33.9236021389179356
 20
72.5119690000000077
 30
0.0
 11
33.9236021389179356
 21
75.6125690000000077
 31
0.0
  0
LINE
  5
2E5
100
AcDbEntity
  8
0
 62
0
370
-1
 48
1.0
  6
BYLAYER
100
AcDbLine
 10
33.9236021389179356
 20
75.6125690000000077
 30
0.0
 11
33.1232021389179323
 21
75.6125690000000077
 31
0.0
  0
LINE
  5
2E6
100
AcDbEntity
  8
0
 62
0
370
-1
 48
1.0
  6
BYLAYER
100
AcDbLine
 10
33.1232021389179323
 20
75.6125690000000077
 30
0.0
 11
33.1232021389179323
 21
81.4143690000000078
 31
0.0
  0
LINE
  5
2E7
100
AcDbEntity
  8
0
 62
0
370
-1
 48
1.0
  6
BYLAYER
100
AcDbLine
 10
33.1232021389179323
 20
81.4143690000000078
 30
0.0
 11
33.9236021389179356
 21
81.4143690000000078
 31
0.0
  0
LINE
  5
2E8
100
AcDbEntity
  8
0
 62
0
370
-1
 48
1.0
  6
BYLAYER
100
AcDbLine
 10
33.9236021389179356
 20
81.4143690000000078
 30
0.0
 11
33.9236021389179356
 21
84.5134690000000006
 31
0.0
  0
LINE
  5
2E9
100
AcDbEntity
  8
0
 62
0
370
-1
 48
1.0
  6
BYLAYER
100
AcDbLine
 10
33.9236021389179356
 20
84.5134690000000006
 30
0.0
 11
33.1232021389179323
 21
84.5134690000000006
 31
0.0
  0
LINE
  5
2EA
100
AcDbEntity
  8
0
 62
0
370
-1
 48
1.0
  6
BYLAYER
100
AcDbLine
 10
33.1232021389179323
 20
84.5134690000000006
 30
0.0
 11
33.1232021389179323
 21
85.513969000000003
 31
0.0
  0
LINE
  5
2EB
100
AcDbEntity
  8
0
 62
0
370
-1
 48
1.0
  6
BYLAYER
100
AcDbLine
 10
33.1232021389179323
 20
85.513969000000003
 30
0.0
 11
19.1237021389179347
 21
85.513969000000003
 31
0.0
  0
LINE
  5
2EC
100
AcDbEntity
  8
0
 62
0
370
-1
 48
1.0
  6
BYLAYER
100
AcDbLine
 10
42.9361021389179385
 20
85.513969000000003
 30
0.0
 11
42.9361021389179385
 21
84.5134690000000006
 31
0.0
  0
LINE
  5
2ED
100
AcDbEntity
  8
0
 62
0
370
-1
 48
1.0
  6
BYLAYER
100
AcDbLine
 10
42.9361021389179385
 20
84.5134690000000006
 30
0.0
 11
42.1370021389179357
 21
84.5134690000000006
 31
0.0
  0
LINE
  5
2EE
100
AcDbEntity
  8
0
 62
0
370
-1
 48
1.0
  6
BYLAYER
100
AcDbLine
 10
42.1370021389179357
 20
84.5134690000000006
 30
0.0
 11
42.1370021389179357
 21
81.4143690000000078
 31
0.0
  0
LINE
  5
2EF
100
AcDbEntity
  8
0
 62
0
370
-1
 48
1.0
  6
BYLAYER
100
AcDbLine
 10
42.1370021389179357
 20
81.4143690000000078
 30
0.0
 11
42.9361021389179385
 21
81.4143690000000078
 31
0.0
  0
LINE
  5
2F0
100
AcDbEntity
  8
0
 62
0
370
-1
 48
1.0
  6
BYLAYER
100
AcDbLine
 10
42.9361021389179385
 20
81.4143690000000078
 30
0.0
 11
42.9361021389179385
 21
75.6125690000000077
 31
0.0
  0
LINE
  5
2F1
100
AcDbEntity
  8
0
 62
0
370
-1
 48
1.0
  6
BYLAYER
100
AcDbLine
 10
42.9361021389179385
 20
75.6125690000000077
 30
0.0
 11
42.1370021389179357
 21
75.6125690000000077
 31
0.0
  0
LINE
  5
2F2
100
AcDbEntity
  8
0
 62
0
370
-1
 48
1.0
  6
BYLAYER
100
AcDbLine
 10
42.1370021389179357
 20
75.6125690000000077
 30
0.0
 11
42.1370021389179357
 21
72.5119690000000077
 31
0.0
  0
LINE
  5
2F3
100
AcDbEntity
  8
0
 62
0
370
-1
 48
1.0
  6
BYLAYER
100
AcDbLine
 10
42.1370021389179357
 20
72.5119690000000077
 30
0.0
 11
42.9361021389179385
 21
72.5119690000000077
 31
0.0
  0
LINE
  5
2F4
100
AcDbEntity
  8
0
 62
0
370
-1
 48
1.0
  6
BYLAYER
100
AcDbLine
 10
42.9361021389179385
 20
72.5119690000000077
 30
0.0
 11
42.9361021389179385
 21
71.5129690000000124
 31
0.0
  0
LINE
  5
2F5
100
AcDbEntity
  8
0
 62
0
370
-1
 48
1.0
  6
BYLAYER
100
AcDbLine
 10
42.9361021389179385
 20
71.5129690000000124
 30
0.0
 11
56.9357021389179323
 21
71.5129690000000124
 31
0.0
  0
LINE
  5
2F6
100
AcDbEntity
  8
0
 62
0
370
-1
 48
1.0
  6
BYLAYER
100
AcDbLine
 10
56.9357021389179323
 20
71.5129690000000124
 30
0.0
 11
56.9357021389179323
 21
72.5119690000000077
 31
0.0
  0
LINE
  5
2F7
100
AcDbEntity
  8
0
 62
0
370
-1
 48
1.0
  6
BYLAYER
100
AcDbLine
 10
56.9357021389179323
 20
72.5119690000000077
 30
0.0
 11
57.7361021389179356
 21
72.5119690000000077
 31
0.0
  0
LINE
  5
2F8
100
AcDbEntity
  8
0
 62
0
370
-1
 48
1.0
  6
BYLAYER
100
AcDbLine
 10
57.7361021389179356
 20
72.5119690000000077
 30
0.0
 11
57.7361021389179356
 21
75.6125690000000077
 31
0.0
  0
LINE
  5
2F9
100
AcDbEntity
  8
0
 62
0
370
-1
 48
1.0
  6
BYLAYER
100
AcDbLine
 10
57.7361021389179356
 20
75.6125690000000077
 30
0.0
 11
56.9357021389179323
 21
75.6125690000000077
 31
0.0
  0
LINE
  5
2FA
100
AcDbEntity
  8
0
 62
0
370
-1
 48
1.0
  6
BYLAYER
100
AcDbLine
 10
56.9357021389179323
 20
75.6125690000000077
 30
0.0
 11
56.9357021389179323
 21
81.4143690000000078
 31
0.0
  0
LINE
  5
2FB
100
AcDbEntity
  8
0
 62
0
370
-1
 48
1.0
  6
BYLAYER
100
AcDbLine
 10
56.9357021389179323
 20
81.4143690000000078
 30
0.0
 11
57.7361021389179356
 21
81.4143690000000078
 31
0.0
  0
LINE
  5
2FC
100
AcDbEntity
  8
0
 62
0
370
-1
 48
1.0
  6
BYLAYER
100
AcDbLine
 10
57.7361021389179356
 20
81.4143690000000078
 30
0.0
 11
57.7361021389179356
 21
84.5134690000000006
 31
0.0
  0
LINE
  5
2FD
100
AcDbEntity
  8
0
 62
0
370
-1
 48
1.0
  6
BYLAYER
100
AcDbLine
 10
57.7361021389179356
 20
84.5134690000000006
 30
0.0
 11
56.9357021389179323
 21
84.5134690000000006
 31
0.0
  0
LINE
  5
2FE
100
AcDbEntity
  8
0
 62
0
370
-1
 48
1.0
  6
BYLAYER
100
AcDbLine
 10
56.9357021389179323
 20
84.5134690000000006
 30
0.0
 11
56.9357021389179323
 21
85.513969000000003
 31
0.0
  0
LINE
  5
2FF
100
AcDbEntity
  8
0
 62
0
370
-1
 48
1.0
  6
BYLAYER
100
AcDbLine
 10
56.9357021389179323
 20
85.513969000000003
 30
0.0
 11
42.9361021389179385
 21
85.513969000000003
 31
0.0
  0
LINE
  5
300
100
AcDbEntity
  8
0
 62
0
370
-1
 48
1.0
  6
BYLAYER
100
AcDbLine
 10
61.9861021389179356
 20
85.513969000000003
 30
0.0
 11
61.9861021389179356
 21
84.5134690000000006
 31
0.0
  0
LINE
  5
301
100
AcDbEntity
  8
0
 62
0
370
-1
 48
1.0
  6
BYLAYER
100
AcDbLine
 10
61.9861021389179356
 20
84.5134690000000006
 30
0.0
 11
61.1870021389179399
 21
84.5134690000000006
 31
0.0
  0
LINE
  5
302
100
AcDbEntity
  8
0
 62
0
370
-1
 48
1.0
  6
BYLAYER
100
AcDbLine
 10
61.1870021389179399
 20
84.5134690000000006
 30
0.0
 11
61.1870021389179399
 21
81.4143690000000078
 31
0.0
  0
LINE
  5
303
100
AcDbEntity
  8
0
 62
0
370
-1
 48
1.0
  6
BYLAYER
100
AcDbLine
 10
61.1870021389179399
 20
81.4143690000000078
 30
0.0
 11
61.9861021389179356
 21
81.4143690000000078
 31
0.0
  0
LINE
  5
304
100
AcDbEntity
  8
0
 62
0
370
-1
 48
1.0
  6
BYLAYER
100
AcDbLine
 10
61.9861021389179356
 20
81.4143690000000078
 30
0.0
 11
61.9861021389179356
 21
75.6125690000000077
 31
0.0
  0
LINE
  5
305
100
AcDbEntity
  8
0
 62
0
370
-1
 48
1.0
  6
BYLAYER
100
AcDbLine
 10
61.9861021389179356
 20
75.6125690000000077
 30
0.0
 11
61.1870021389179399
 21
75.6125690000000077
 31
0.0
  0
LINE
  5
306
100
AcDbEntity
  8
0
 62
0
370
-1
 48
1.0
  6
BYLAYER
100
AcDbLine
 10
61.1870021389179399
 20
75.6125690000000077
 30
0.0
 11
61.1870021389179399
 21
72.5119690000000077
 31
0.0
  0
LINE
  5
307
100
AcDbEntity
  8
0
 62
0
370
-1
 48
1.0
  6
BYLAYER
100
AcDbLine
 10
61.1870021389179399
 20
72.5119690000000077
 30
0.0
 11
61.9861021389179356
 21
72.5119690000000077
 31
0.0
  0
LINE
  5
308
100
AcDbEntity
  8
0
 62
0
370
-1
 48
1.0
  6
BYLAYER
100
AcDbLine
 10
61.9861021389179356
 20
72.5119690000000077
 30
0.0
 11
61.9861021389179356
 21
71.5129690000000124
 31
0.0
  0
LINE
  5
309
100
AcDbEntity
  8
0
 62
0
370
-1
 48
1.0
  6
BYLAYER
100
AcDbLine
 10
61.9861021389179356
 20
71.5129690000000124
 30
0.0
 11
75.9857021389179295
 21
71.5129690000000124
 31
0.0
  0
LINE
  5
30A
100
AcDbEntity
  8
0
 62
0
370
-1
 48
1.0
  6
BYLAYER
100
AcDbLine
 10
75.9857021389179295
 20
71.5129690000000124
 30
0.0
 11
75.9857021389179295
 21
72.5119690000000077
 31
0.0
  0
LINE
  5
30B
100
AcDbEntity
  8
0
 62
0
370
-1
 48
1.0
  6
BYLAYER
100
AcDbLine
 10
75.9857021389179295
 20
72.5119690000000077
 30
0.0
 11
76.7861021389179257
 21
72.5119690000000077
 31
0.0
  0
LINE
  5
30C
100
AcDbEntity
  8
0
 62
0
370
-1
 48
1.0
  6
BYLAYER
100
AcDbLine
 10
76.7861021389179257
 20
72.5119690000000077
 30
0.0
 11
76.7861021389179257
 21
75.6125690000000077
 31
0.0
  0
LINE
  5
30D
100
AcDbEntity
  8
0
 62
0
370
-1
 48
1.0
  6
BYLAYER
100
AcDbLine
 10
76.7861021389179257
 20
75.6125690000000077
 30
0.0
 11
75.9857021389179295
 21
75.6125690000000077
 31
0.0
  0
LINE
  5
30E
100
AcDbEntity
  8
0
 62
0
370
-1
 48
1.0
  6
BYLAYER
100
AcDbLine
 10
75.9857021389179295
 20
75.6125690000000077
 30
0.0
 11
75.9857021389179295
 21
81.4143690000000078
 31
0.0
  0
LINE
  5
30F
100
AcDbEntity
  8
0
 62
0
370
-1
 48
1.0
  6
BYLAYER
100
AcDbLine
 10
75.9857021389179295
 20
81.4143690000000078
 30
0.0
 11
76.7861021389179257
 21
81.4143690000000078
 31
0.0
  0
LINE
  5
310
100
AcDbEntity
  8
0
 62
0
370
-1
 48
1.0
  6
BYLAYER
100
AcDbLine
 10
76.7861021389179257
 20
81.4143690000000078
 30
0.0
 11
76.7861021389179257
 21
84.5134690000000006
 31
0.0
  0
LINE
  5
311
100
AcDbEntity
  8
0
 62
0
370
-1
 48
1.0
  6
BYLAYER
100
AcDbLine
 10
76.7861021389179257
 20
84.5134690000000006
 30
0.0
 11
75.9857021389179295
 21
84.5134690000000006
 31
0.0
  0
LINE
  5
312
100
AcDbEntity
  8
0
 62
0
370
-1
 48
1.0
  6
BYLAYER
100
AcDbLine
 10
75.9857021389179295
 20
84.5134690000000006
 30
0.0
 11
75.9857021389179295
 21
85.513969000000003
 31
0.0
  0
LINE
  5
313
100
AcDbEntity
  8
0
 62
0
370
-1
 48
1.0
  6
BYLAYER
100
AcDbLine
 10
75.9857021389179295
 20
85.513969000000003
 30
0.0
 11
61.9861021389179356
 21
85.513969000000003
 31
0.0
  0
LINE
  5
314
100
AcDbEntity
  8
0
 62
0
370
-1
 48
1.0
  6
BYLAYER
100
AcDbLine
 10
81.0361021389179257
 20
85.513969000000003
 30
0.0
 11
81.0361021389179257
 21
84.5134690000000006
 31
0.0
  0
LINE
  5
315
100
AcDbEntity
  8
0
 62
0
370
-1
 48
1.0
  6
BYLAYER
100
AcDbLine
 10
81.0361021389179257
 20
84.5134690000000006
 30
0.0
 11
80.2370021389179442
 21
84.5134690000000006
 31
0.0
  0
LINE
  5
316
100
AcDbEntity
  8
0
 62
0
370
-1
 48
1.0
  6
BYLAYER
100
AcDbLine
 10
80.2370021389179442
 20
84.5134690000000006
 30
0.0
 11
80.2370021389179442
 21
81.4143690000000078
 31
0.0
  0
LINE
  5
317
100
AcDbEntity
  8
0
 62
0
370
-1
 48
1.0
  6
BYLAYER
100
AcDbLine
 10
80.2370021389179442
 20
81.4143690000000078
 30
0.0
 11
81.0361021389179257
 21
81.4143690000000078
 31
0.0
  0
LINE
  5
318
100
AcDbEntity
  8
0
 62
0
370
-1
 48
1.0
  6
BYLAYER
100
AcDbLine
 10
81.0361021389179257
 20
81.4143690000000078
 30
0.0
 11
81.0361021389179257
 21
75.6125690000000077
 31
0.0
  0
LINE
  5
319
100
AcDbEntity
  8
0
 62
0
370
-1
 48
1.0
  6
BYLAYER
100
AcDbLine
 10
81.0361021389179257
 20
75.6125690000000077
 30
0.0
 11
80.2370021389179442
 21
75.6125690000000077
 31
0.0
  0
LINE
  5
31A
100
AcDbEntity
  8
0
 62
0
370
-1
 48
1.0
  6
BYLAYER
100
AcDbLine
 10
80.2370021389179442
 20
75.6125690000000077
 30
0.0
 11
80.2370021389179442
 21
72.5119690000000077
 31
0.0
  0
LINE
  5
31B
100
AcDbEntity
  8
0
 62
0
370
-1
 48
1.0
  6
BYLAYER
100
AcDbLine
 10
80.2370021389179442
 20
72.5119690000000077
 30
0.0
 11
81.0361021389179257
 21
72.5119690000000077
 31
0.0
  0
LINE
  5
31C
100
AcDbEntity
  8
0
 62
0
370
-1
 48
1.0
  6
BYLAYER
100
AcDbLine
 10
81.0361021389179257
 20
72.5119690000000077
 30
0.0
 11
81.0361021389179257
 21
71.5129690000000124
 31
0.0
  0
LINE
  5
31D
100
AcDbEntity
  8
0
 62
0
370
-1
 48
1.0
  6
BYLAYER
100
AcDbLine
 10
81.0361021389179257
 20
71.5129690000000124
 30
0.0
 11
95.0357021389179408
 21
71.5129690000000124
 31
0.0
  0
LINE
  5
31E
100
AcDbEntity
  8
0
 62
0
370
-1
 48
1.0
  6
BYLAYER
100
AcDbLine
 10
95.0357021389179408
 20
71.5129690000000124
 30
0.0
 11
95.0357021389179408
 21
72.5119690000000077
 31
0.0
  0
LINE
  5
31F
100
AcDbEntity
  8
0
 62
0
370
-1
 48
1.0
  6
BYLAYER
100
AcDbLine
 10
95.0357021389179408
 20
72.5119690000000077
 30
0.0
 11
95.8365021389179219
 21
72.5119690000000077
 31
0.0
  0
LINE
  5
320
100
AcDbEntity
  8
0
 62
0
370
-1
 48
1.0
  6
BYLAYER
100
AcDbLine
 10
95.8365021389179219
 20
72.5119690000000077
 30
0.0
 11
95.8365021389179219
 21
75.6125690000000077
 31
0.0
  0
LINE
  5
321
100
AcDbEntity
  8
0
 62
0
370
-1
 48
1.0
  6
BYLAYER
100
AcDbLine
 10
95.8365021389179219
 20
75.6125690000000077
 30
0.0
 11
95.0357021389179408
 21
75.6125690000000077
 31
0.0
  0
LINE
  5
322
100
AcDbEntity
  8
0
 62
0
370
-1
 48
1.0
  6
BYLAYER
100
AcDbLine
 10
95.0357021389179408
 20
75.6125690000000077
 30
0.0
 11
95.0357021389179408
 21
81.4143690000000078
 31
0.0
  0
LINE
  5
323
100
AcDbEntity
  8
0
 62
0
370
-1
 48
1.0
  6
BYLAYER
100
AcDbLine
 10
95.0357021389179408
 20
81.4143690000000078
 30
0.0
 11
95.8365021389179219
 21
81.4143690000000078
 31
0.0
  0
LINE
  5
324
100
AcDbEntity
  8
0
 62
0
370
-1
 48
1.0
  6
BYLAYER
100
AcDbLine
 10
95.8365021389179219
 20
81.4143690000000078
 30
0.0
 11
95.8365021389179219
 21
84.5134690000000006
 31
0.0
  0
LINE
  5
325
100
AcDbEntity
  8
0
 62
0
370
-1
 48
1.0
  6
BYLAYER
100
AcDbLine
 10
95.8365021389179219
 20
84.5134690000000006
 30
0.0
 11
95.0357021389179408
 21
84.5134690000000006
 31
0.0
  0
LINE
  5
326
100
AcDbEntity
  8
0
 62
0
370
-1
 48
1.0
  6
BYLAYER
100
AcDbLine
 10
95.0357021389179408
 20
84.5134690000000006
 30
0.0
 11
95.0357021389179408
 21
85.513969000000003
 31
0.0
  0
LINE
  5
327
100
AcDbEntity
  8
0
 62
0
370
-1
 48
1.0
  6
BYLAYER
100
AcDbLine
 10
95.0357021389179408
 20
85.513969000000003
 30
0.0
 11
81.0361021389179257
 21
85.513969000000003
 31
0.0
  0
LINE
  5
328
100
AcDbEntity
  8
0
 62
0
370
-1
 48
1.0
  6
BYLAYER
100
AcDbLine
 10
100.0865021389179219
 20
85.513969000000003
 30
0.0
 11
100.0865021389179219
 21
84.5134690000000006
 31
0.0
  0
LINE
  5
329
100
AcDbEntity
  8
0
 62
0
370
-1
 48
1.0
  6
BYLAYER
100
AcDbLine
 10
100.0865021389179219
 20
84.5134690000000006
 30
0.0
 11
99.2875021389179437
 21
84.5134690000000006
 31
0.0
  0
LINE
  5
32A
100
AcDbEntity
  8
0
 62
0
370
-1
 48
1.0
  6
BYLAYER
100
AcDbLine
 10
99.2875021389179437
 20
84.5134690000000006
 30
0.0
 11
99.2875021389179437
 21
81.4143690000000078
 31
0.0
  0
LINE
  5
32B
100
AcDbEntity
  8
0
 62
0
370
-1
 48
1.0
  6
BYLAYER
100
AcDbLine
 10
99.2875021389179437
 20
81.4143690000000078
 30
0.0
 11
100.0865021389179219
 21
81.4143690000000078
 31
0.0
  0
LINE
  5
32C
100
AcDbEntity
  8
0
 62
0
370
-1
 48
1.0
  6
BYLAYER
100
AcDbLine
 10
100.0865021389179219
 20
81.4143690000000078
 30
0.0
 11
100.0865021389179219
 21
75.6125690000000077
 31
0.0
  0
LINE
  5
32D
100
AcDbEntity
  8
0
 62
0
370
-1
 48
1.0
  6
BYLAYER
100
AcDbLine
 10
100.0865021389179219
 20
75.6125690000000077
 30
0.0
 11
99.2875021389179437
 21
75.6125690000000077
 31
0.0
  0
LINE
  5
32E
100
AcDbEntity
  8
0
 62
0
370
-1
 48
1.0
  6
BYLAYER
100
AcDbLine
 10
99.2875021389179437
 20
75.6125690000000077
 30
0.0
 11
99.2875021389179437
 21
72.5119690000000077
 31
0.0
  0
LINE
  5
32F
100
AcDbEntity
  8
0
 62
0
370
-1
 48
1.0
  6
BYLAYER
100
AcDbLine
 10
99.2875021389179437
 20
72.5119690000000077
 30
0.0
 11
100.0865021389179219
 21
72.5119690000000077
 31
0.0
  0
LINE
  5
330
100
AcDbEntity
  8
0
 62
0
370
-1
 48
1.0
  6
BYLAYER
100
AcDbLine
 10
100.0865021389179219
 20
72.5119690000000077
 30
0.0
 11
100.0865021389179219
 21
71.5129690000000124
 31
0.0
  0
LINE
  5
331
100
AcDbEntity
  8
0
 62
0
370
-1
 48
1.0
  6
BYLAYER
100
AcDbLine
 10
100.0865021389179219
 20
71.5129690000000124
 30
0.0
 11
114.0855021389179456
 21
71.5129690000000124
 31
0.0
  0
LINE
  5
332
100
AcDbEntity
  8
0
 62
0
370
-1
 48
1.0
  6
BYLAYER
100
AcDbLine
 10
114.0855021389179456
 20
71.5129690000000124
 30
0.0
 11
114.0855021389179456
 21
72.5119690000000077
 31
0.0
  0
LINE
  5
333
100
AcDbEntity
  8
0
 62
0
370
-1
 48
1.0
  6
BYLAYER
100
AcDbLine
 10
114.0855021389179456
 20
72.5119690000000077
 30
0.0
 11
114.8865021389179333
 21
72.5119690000000077
 31
0.0
  0
LINE
  5
334
100
AcDbEntity
  8
0
 62
0
370
-1
 48
1.0
  6
BYLAYER
100
AcDbLine
 10
114.8865021389179333
 20
72.5119690000000077
 30
0.0
 11
114.8865021389179333
 21
75.6125690000000077
 31
0.0
  0
LINE
  5
335
100
AcDbEntity
  8
0
 62
0
370
-1
 48
1.0
  6
BYLAYER
100
AcDbLine
 10
114.8865021389179333
 20
75.6125690000000077
 30
0.0
 11
114.0855021389179456
 21
75.6125690000000077
 31
0.0
  0
LINE
  5
336
100
AcDbEntity
  8
0
 62
0
370
-1
 48
1.0
  6
BYLAYER
100
AcDbLine
 10
114.0855021389179456
 20
75.6125690000000077
 30
0.0
 11
114.0855021389179456
 21
81.4143690000000078
 31
0.0
  0
LINE
  5
337
100
AcDbEntity
  8
0
 62
0
370
-1
 48
1.0
  6
BYLAYER
100
AcDbLine
 10
114.0855021389179456
 20
81.4143690000000078
 30
0.0
 11
114.8865021389179333
 21
81.4143690000000078
 31
0.0
  0
LINE
  5
338
100
AcDbEntity
  8
0
 62
0
370
-1
 48
1.0
  6
BYLAYER
100
AcDbLine
 10
114.8865021389179333
 20
81.4143690000000078
 30
0.0
 11
114.8865021389179333
 21
84.5134690000000006
 31
0.0
  0
LINE
  5
339
100
AcDbEntity
  8
0
 62
0
370
-1
 48
1.0
  6
BYLAYER
100
AcDbLine
 10
114.8865021389179333
 20
84.5134690000000006
 30
0.0
 11
114.0855021389179456
 21
84.5134690000000006
 31
0.0
  0
LINE
  5
33A
100
AcDbEntity
  8
0
 62
0
370
-1
 48
1.0
  6
BYLAYER
100
AcDbLine
 10
114.0855021389179456
 20
84.5134690000000006
 30
0.0
 11
114.0855021389179456
 21
85.513969000000003
 31
0.0
  0
LINE
  5
33B
100
AcDbEntity
  8
0
 62
0
370
-1
 48
1.0
  6
BYLAYER
100
AcDbLine
 10
114.0855021389179456
 20
85.513969000000003
 30
0.0
 11
100.0865021389179219
 21
85.513969000000003
 31
0.0
  0
LINE
  5
33C
100
AcDbEntity
  8
0
 62
0
370
-1
 48
1.0
  6
BYLAYER
100
AcDbLine
 10
119.1365021389179333
 20
85.513969000000003
 30
0.0
 11
119.1365021389179333
 21
84.5134690000000006
 31
0.0
  0
LINE
  5
33D
100
AcDbEntity
  8
0
 62
0
370
-1
 48
1.0
  6
BYLAYER
100
AcDbLine
 10
119.1365021389179333
 20
84.5134690000000006
 30
0.0
 11
118.3375021389179267
 21
84.5134690000000006
 31
0.0
  0
LINE
  5
33E
100
AcDbEntity
  8
0
 62
0
370
-1
 48
1.0
  6
BYLAYER
100
AcDbLine
 10
118.3375021389179267
 20
84.5134690000000006
 30
0.0
 11
118.3375021389179267
 21
81.4143690000000078
 31
0.0
  0
LINE
  5
33F
100
AcDbEntity
  8
0
 62
0
370
-1
 48
1.0
  6
BYLAYER
100
AcDbLine
 10
118.3375021389179267
 20
81.4143690000000078
 30
0.0
 11
119.1365021389179333
 21
81.4143690000000078
 31
0.0
  0
LINE
  5
340
100
AcDbEntity
  8
0
 62
0
370
-1
 48
1.0
  6
BYLAYER
100
AcDbLine
 10
119.1365021389179333
 20
81.4143690000000078
 30
0.0
 11
119.1365021389179333
 21
75.6125690000000077
 31
0.0
  0
LINE
  5
341
100
AcDbEntity
  8
0
 62
0
370
-1
 48
1.0
  6
BYLAYER
100
AcDbLine
 10
119.1365021389179333
 20
75.6125690000000077
 30
0.0
 11
118.3375021389179267
 21
75.6125690000000077
 31
0.0
  0
LINE
  5
342
100
AcDbEntity
  8
0
 62
0
370
-1
 48
1.0
  6
BYLAYER
100
AcDbLine
 10
118.3375021389179267
 20
75.6125690000000077
 30
0.0
 11
118.3375021389179267
 21
72.5119690000000077
 31
0.0
  0
LINE
  5
343
100
AcDbEntity
  8
0
 62
0
370
-1
 48
1.0
  6
BYLAYER
100
AcDbLine
 10
118.3375021389179267
 20
72.5119690000000077
 30
0.0
 11
119.1365021389179333
 21
72.5119690000000077
 31
0.0
  0
LINE
  5
344
100
AcDbEntity
  8
0
 62
0
370
-1
 48
1.0
  6
BYLAYER
100
AcDbLine
 10
119.1365021389179333
 20
72.5119690000000077
 30
0.0
 11
119.1365021389179333
 21
71.5129690000000124
 31
0.0
  0
LINE
  5
345
100
AcDbEntity
  8
0
 62
0
370
-1
 48
1.0
  6
BYLAYER
100
AcDbLine
 10
119.1365021389179333
 20
71.5129690000000124
 30
0.0
 11
133.1355021389179285
 21
71.5129690000000124
 31
0.0
  0
LINE
  5
346
100
AcDbEntity
  8
0
 62
0
370
-1
 48
1.0
  6
BYLAYER
100
AcDbLine
 10
133.1355021389179285
 20
71.5129690000000124
 30
0.0
 11
133.1355021389179285
 21
72.5119690000000077
 31
0.0
  0
LINE
  5
347
100
AcDbEntity
  8
0
 62
0
370
-1
 48
1.0
  6
BYLAYER
100
AcDbLine
 10
133.1355021389179285
 20
72.5119690000000077
 30
0.0
 11
133.9365021389179162
 21
72.5119690000000077
 31
0.0
  0
LINE
  5
348
100
AcDbEntity
  8
0
 62
0
370
-1
 48
1.0
  6
BYLAYER
100
AcDbLine
 10
133.9365021389179162
 20
72.5119690000000077
 30
0.0
 11
133.9365021389179162
 21
75.6125690000000077
 31
0.0
  0
LINE
  5
349
100
AcDbEntity
  8
0
 62
0
370
-1
 48
1.0
  6
BYLAYER
100
AcDbLine
 10
133.9365021389179162
 20
75.6125690000000077
 30
0.0
 11
133.1355021389179285
 21
75.6125690000000077
 31
0.0
  0
LINE
  5
34A
100
AcDbEntity
  8
0
 62
0
370
-1
 48
1.0
  6
BYLAYER
100
AcDbLine
 10
133.1355021389179285
 20
75.6125690000000077
 30
0.0
 11
133.1355021389179285
 21
81.4143690000000078
 31
0.0
  0
LINE
  5
34B
100
AcDbEntity
  8
0
 62
0
370
-1
 48
1.0
  6
BYLAYER
100
AcDbLine
 10
133.1355021389179285
 20
81.4143690000000078
 30
0.0
 11
133.9365021389179162
 21
81.4143690000000078
 31
0.0
  0
LINE
  5
34C
100
AcDbEntity
  8
0
 62
0
370
-1
 48
1.0
  6
BYLAYER
100
AcDbLine
 10
133.9365021389179162
 20
81.4143690000000078
 30
0.0
 11
133.9365021389179162
 21
84.5134690000000006
 31
0.0
  0
LINE
  5
34D
100
AcDbEntity
  8
0
 62
0
370
-1
 48
1.0
  6
BYLAYER
100
AcDbLine
 10
133.9365021389179162
 20
84.5134690000000006
 30
0.0
 11
133.1355021389179285
 21
84.5134690000000006
 31
0.0
  0
LINE
  5
34E
100
AcDbEntity
  8
0
 62
0
370
-1
 48
1.0
  6
BYLAYER
100
AcDbLine
 10
133.1355021389179285
 20
84.5134690000000006
 30
0.0
 11
133.1355021389179285
 21
85.513969000000003
 31
0.0
  0
LINE
  5
34F
100
AcDbEntity
  8
0
 62
0
370
-1
 48
1.0
  6
BYLAYER
100
AcDbLine
 10
133.1355021389179285
 20
85.513969000000003
 30
0.0
 11
119.1365021389179333
 21
85.513969000000003
 31
0.0
  0
LINE
  5
350
100
AcDbEntity
  8
0
 62
0
370
-1
 48
1.0
  6
BYLAYER
100
AcDbLine
 10
138.1865021389179162
 20
85.513969000000003
 30
0.0
 11
138.1865021389179162
 21
84.5134690000000006
 31
0.0
  0
LINE
  5
351
100
AcDbEntity
  8
0
 62
0
370
-1
 48
1.0
  6
BYLAYER
100
AcDbLine
 10
138.1865021389179162
 20
84.5134690000000006
 30
0.0
 11
137.3875021389179381
 21
84.5134690000000006
 31
0.0
  0
LINE
  5
352
100
AcDbEntity
  8
0
 62
0
370
-1
 48
1.0
  6
BYLAYER
100
AcDbLine
 10
137.3875021389179381
 20
84.5134690000000006
 30
0.0
 11
137.3875021389179381
 21
81.4143690000000078
 31
0.0
  0
LINE
  5
353
100
AcDbEntity
  8
0
 62
0
370
-1
 48
1.0
  6
BYLAYER
100
AcDbLine
 10
137.3875021389179381
 20
81.4143690000000078
 30
0.0
 11
138.1865021389179162
 21
81.4143690000000078
 31
0.0
  0
LINE
  5
354
100
AcDbEntity
  8
0
 62
0
370
-1
 48
1.0
  6
BYLAYER
100
AcDbLine
 10
138.1865021389179162
 20
81.4143690000000078
 30
0.0
 11
138.1865021389179162
 21
75.6125690000000077
 31
0.0
  0
LINE
  5
355
100
AcDbEntity
  8
0
 62
0
370
-1
 48
1.0
  6
BYLAYER
100
AcDbLine
 10
138.1865021389179162
 20
75.6125690000000077
 30
0.0
 11
137.3875021389179381
 21
75.6125690000000077
 31
0.0
  0
LINE
  5
356
100
AcDbEntity
  8
0
 62
0
370
-1
 48
1.0
  6
BYLAYER
100
AcDbLine
 10
137.3875021389179381
 20
75.6125690000000077
 30
0.0
 11
137.3875021389179381
 21
72.5119690000000077
 31
0.0
  0
LINE
  5
357
100
AcDbEntity
  8
0
 62
0
370
-1
 48
1.0
  6
BYLAYER
100
AcDbLine
 10
137.3875021389179381
 20
72.5119690000000077
 30
0.0
 11
138.1865021389179162
 21
72.5119690000000077
 31
0.0
  0
LINE
  5
358
100
AcDbEntity
  8
0
 62
0
370
-1
 48
1.0
  6
BYLAYER
100
AcDbLine
 10
138.1865021389179162
 20
72.5119690000000077
 30
0.0
 11
138.1865021389179162
 21
71.5129690000000124
 31
0.0
  0
LINE
  5
359
100
AcDbEntity
  8
0
 62
0
370
-1
 48
1.0
  6
BYLAYER
100
AcDbLine
 10
138.1865021389179162
 20
71.5129690000000124
 30
0.0
 11
152.1855021389179399
 21
71.5129690000000124
 31
0.0
  0
LINE
  5
35A
100
AcDbEntity
  8
0
 62
0
370
-1
 48
1.0
  6
BYLAYER
100
AcDbLine
 10
152.1855021389179399
 20
71.5129690000000124
 30
0.0
 11
152.1855021389179399
 21
72.5119690000000077
 31
0.0
  0
LINE
  5
35B
100
AcDbEntity
  8
0
 62
0
370
-1
 48
1.0
  6
BYLAYER
100
AcDbLine
 10
152.1855021389179399
 20
72.5119690000000077
 30
0.0
 11
152.9865021389179276
 21
72.5119690000000077
 31
0.0
  0
LINE
  5
35C
100
AcDbEntity
  8
0
 62
0
370
-1
 48
1.0
  6
BYLAYER
100
AcDbLine
 10
152.9865021389179276
 20
72.5119690000000077
 30
0.0
 11
152.9865021389179276
 21
75.6125690000000077
 31
0.0
  0
LINE
  5
35D
100
AcDbEntity
  8
0
 62
0
370
-1
 48
1.0
  6
BYLAYER
100
AcDbLine
 10
152.9865021389179276
 20
75.6125690000000077
 30
0.0
 11
152.1855021389179399
 21
75.6125690000000077
 31
0.0
  0
LINE
  5
35E
100
AcDbEntity
  8
0
 62
0
370
-1
 48
1.0
  6
BYLAYER
100
AcDbLine
 10
152.1855021389179399
 20
75.6125690000000077
 30
0.0
 11
152.1855021389179399
 21
81.4143690000000078
 31
0.0
  0
LINE
  5
35F
100
AcDbEntity
  8
0
 62
0
370
-1
 48
1.0
  6
BYLAYER
100
AcDbLine
 10
152.1855021389179399
 20
81.4143690000000078
 30
0.0
 11
152.9865021389179276
 21
81.4143690000000078
 31
0.0
  0
LINE
  5
360
100
AcDbEntity
  8
0
 62
0
370
-1
 48
1.0
  6
BYLAYER
100
AcDbLine
 10
152.9865021389179276
 20
81.4143690000000078
 30
0.0
 11
152.9865021389179276
 21
84.5134690000000006
 31
0.0
  0
LINE
  5
361
100
AcDbEntity
  8
0
 62
0
370
-1
 48
1.0
  6
BYLAYER
100
AcDbLine
 10
152.9865021389179276
 20
84.5134690000000006
 30
0.0
 11
152.1855021389179399
 21
84.5134690000000006
 31
0.0
  0
LINE
  5
362
100
AcDbEntity
  8
0
 62
0
370
-1
 48
1.0
  6
BYLAYER
100
AcDbLine
 10
152.1855021389179399
 20
84.5134690000000006
 30
0.0
 11
152.1855021389179399
 21
85.513969000000003
 31
0.0
  0
LINE
  5
363
100
AcDbEntity
  8
0
 62
0
370
-1
 48
1.0
  6
BYLAYER
100
AcDbLine
 10
152.1855021389179399
 20
85.513969000000003
 30
0.0
 11
138.1865021389179162
 21
85.513969000000003
 31
0.0
  0
LINE
  5
364
100
AcDbEntity
  8
0
 62
0
370
-1
 48
1.0
  6
BYLAYER
100
AcDbLine
 10
157.2365021389179276
 20
85.513969000000003
 30
0.0
 11
157.2365021389179276
 21
84.5134690000000006
 31
0.0
  0
LINE
  5
365
100
AcDbEntity
  8
0
 62
0
370
-1
 48
1.0
  6
BYLAYER
100
AcDbLine
 10
157.2365021389179276
 20
84.5134690000000006
 30
0.0
 11
156.437502138917921
 21
84.5134690000000006
 31
0.0
  0
LINE
  5
366
100
AcDbEntity
  8
0
 62
0
370
-1
 48
1.0
  6
BYLAYER
100
AcDbLine
 10
156.437502138917921
 20
84.5134690000000006
 30
0.0
 11
156.437502138917921
 21
81.4143690000000078
 31
0.0
  0
LINE
  5
367
100
AcDbEntity
  8
0
 62
0
370
-1
 48
1.0
  6
BYLAYER
100
AcDbLine
 10
156.437502138917921
 20
81.4143690000000078
 30
0.0
 11
157.2365021389179276
 21
81.4143690000000078
 31
0.0
  0
LINE
  5
368
100
AcDbEntity
  8
0
 62
0
370
-1
 48
1.0
  6
BYLAYER
100
AcDbLine
 10
157.2365021389179276
 20
81.4143690000000078
 30
0.0
 11
157.2365021389179276
 21
75.6125690000000077
 31
0.0
  0
LINE
  5
369
100
AcDbEntity
  8
0
 62
0
370
-1
 48
1.0
  6
BYLAYER
100
AcDbLine
 10
157.2365021389179276
 20
75.6125690000000077
 30
0.0
 11
156.437502138917921
 21
75.6125690000000077
 31
0.0
  0
LINE
  5
36A
100
AcDbEntity
  8
0
 62
0
370
-1
 48
1.0
  6
BYLAYER
100
AcDbLine
 10
156.437502138917921
 20
75.6125690000000077
 30
0.0
 11
156.437502138917921
 21
72.5119690000000077
 31
0.0
  0
LINE
  5
36B
100
AcDbEntity
  8
0
 62
0
370
-1
 48
1.0
  6
BYLAYER
100
AcDbLine
 10
156.437502138917921
 20
72.5119690000000077
 30
0.0
 11
157.2365021389179276
 21
72.5119690000000077
 31
0.0
  0
LINE
  5
36C
100
AcDbEntity
  8
0
 62
0
370
-1
 48
1.0
  6
BYLAYER
100
AcDbLine
 10
157.2365021389179276
 20
72.5119690000000077
 30
0.0
 11
157.2365021389179276
 21
71.5129690000000124
 31
0.0
  0
LINE
  5
36D
100
AcDbEntity
  8
0
 62
0
370
-1
 48
1.0
  6
BYLAYER
100
AcDbLine
 10
157.2365021389179276
 20
71.5129690000000124
 30
0.0
 11
171.2355021389179228
 21
71.5129690000000124
 31
0.0
  0
LINE
  5
36E
100
AcDbEntity
  8
0
 62
0
370
-1
 48
1.0
  6
BYLAYER
100
AcDbLine
 10
171.2355021389179228
 20
71.5129690000000124
 30
0.0
 11
171.2355021389179228
 21
72.5119690000000077
 31
0.0
  0
LINE
  5
36F
100
AcDbEntity
  8
0
 62
0
370
-1
 48
1.0
  6
BYLAYER
100
AcDbLine
 10
171.2355021389179228
 20
72.5119690000000077
 30
0.0
 11
172.036502138917939
 21
72.5119690000000077
 31
0.0
  0
LINE
  5
370
100
AcDbEntity
  8
0
 62
0
370
-1
 48
1.0
  6
BYLAYER
100
AcDbLine
 10
172.036502138917939
 20
72.5119690000000077
 30
0.0
 11
172.036502138917939
 21
75.6125690000000077
 31
0.0
  0
LINE
  5
371
100
AcDbEntity
  8
0
 62
0
370
-1
 48
1.0
  6
BYLAYER
100
AcDbLine
 10
172.036502138917939
 20
75.6125690000000077
 30
0.0
 11
171.2355021389179228
 21
75.6125690000000077
 31
0.0
  0
LINE
  5
372
100
AcDbEntity
  8
0
 62
0
370
-1
 48
1.0
  6
BYLAYER
100
AcDbLine
 10
171.2355021389179228
 20
75.6125690000000077
 30
0.0
 11
171.2355021389179228
 21
81.4143690000000078
 31
0.0
  0
LINE
  5
373
100
AcDbEntity
  8
0
 62
0
370
-1
 48
1.0
  6
BYLAYER
100
AcDbLine
 10
171.2355021389179228
 20
81.4143690000000078
 30
0.0
 11
172.036502138917939
 21
81.4143690000000078
 31
0.0
  0
LINE
  5
374
100
AcDbEntity
  8
0
 62
0
370
-1
 48
1.0
  6
BYLAYER
100
AcDbLine
 10
172.036502138917939
 20
81.4143690000000078
 30
0.0
 11
172.036502138917939
 21
84.5134690000000006
 31
0.0
  0
LINE
  5
375
100
AcDbEntity
  8
0
 62
0
370
-1
 48
1.0
  6
BYLAYER
100
AcDbLine
 10
172.036502138917939
 20
84.5134690000000006
 30
0.0
 11
171.2355021389179228
 21
84.5134690000000006
 31
0.0
  0
LINE
  5
376
100
AcDbEntity
  8
0
 62
0
370
-1
 48
1.0
  6
BYLAYER
100
AcDbLine
 10
171.2355021389179228
 20
84.5134690000000006
 30
0.0
 11
171.2355021389179228
 21
85.513969000000003
 31
0.0
  0
LINE
  5
377
100
AcDbEntity
  8
0
 62
0
370
-1
 48
1.0
  6
BYLAYER
100
AcDbLine
 10
171.2355021389179228
 20
85.513969000000003
 30
0.0
 11
157.2365021389179276
 21
85.513969000000003
 31
0.0
  0
LINE
  5
378
100
AcDbEntity
  8
0
 62
0
370
-1
 48
1.0
  6
BYLAYER
100
AcDbLine
 10
176.286502138917939
 20
85.513969000000003
 30
0.0
 11
176.286502138917939
 21
84.5134690000000006
 31
0.0
  0
LINE
  5
379
100
AcDbEntity
  8
0
 62
0
370
-1
 48
1.0
  6
BYLAYER
100
AcDbLine
 10
176.286502138917939
 20
84.5134690000000006
 30
0.0
 11
175.4875021389179324
 21
84.5134690000000006
 31
0.0
  0
LINE
  5
37A
100
AcDbEntity
  8
0
 62
0
370
-1
 48
1.0
  6
BYLAYER
100
AcDbLine
 10
175.4875021389179324
 20
84.5134690000000006
 30
0.0
 11
175.4875021389179324
 21
81.4143690000000078
 31
0.0
  0
LINE
  5
37B
100
AcDbEntity
  8
0
 62
0
370
-1
 48
1.0
  6
BYLAYER
100
AcDbLine
 10
175.4875021389179324
 20
81.4143690000000078
 30
0.0
 11
176.286502138917939
 21
81.4143690000000078
 31
0.0
  0
LINE
  5
37C
100
AcDbEntity
  8
0
 62
0
370
-1
 48
1.0
  6
BYLAYER
100
AcDbLine
 10
176.286502138917939
 20
81.4143690000000078
 30
0.0
 11
176.286502138917939
 21
75.6125690000000077
 31
0.0
  0
LINE
  5
37D
100
AcDbEntity
  8
0
 62
0
370
-1
 48
1.0
  6
BYLAYER
100
AcDbLine
 10
176.286502138917939
 20
75.6125690000000077
 30
0.0
 11
175.4875021389179324
 21
75.6125690000000077
 31
0.0
  0
LINE
  5
37E
100
AcDbEntity
  8
0
 62
0
370
-1
 48
1.0
  6
BYLAYER
100
AcDbLine
 10
175.4875021389179324
 20
75.6125690000000077
 30
0.0
 11
175.4875021389179324
 21
72.5119690000000077
 31
0.0
  0
LINE
  5
37F
100
AcDbEntity
  8
0
 62
0
370
-1
 48
1.0
  6
BYLAYER
100
AcDbLine
 10
175.4875021389179324
 20
72.5119690000000077
 30
0.0
 11
176.286502138917939
 21
72.5119690000000077
 31
0.0
  0
LINE
  5
380
100
AcDbEntity
  8
0
 62
0
370
-1
 48
1.0
  6
BYLAYER
100
AcDbLine
 10
176.286502138917939
 20
72.5119690000000077
 30
0.0
 11
176.286502138917939
 21
71.5129690000000124
 31
0.0
  0
LINE
  5
381
100
AcDbEntity
  8
0
 62
0
370
-1
 48
1.0
  6
BYLAYER
100
AcDbLine
 10
176.286502138917939
 20
71.5129690000000124
 30
0.0
 11
190.2855021389179342
 21
71.5129690000000124
 31
0.0
  0
LINE
  5
382
100
AcDbEntity
  8
0
 62
0
370
-1
 48
1.0
  6
BYLAYER
100
AcDbLine
 10
190.2855021389179342
 20
71.5129690000000124
 30
0.0
 11
190.2855021389179342
 21
72.5119690000000077
 31
0.0
  0
LINE
  5
383
100
AcDbEntity
  8
0
 62
0
370
-1
 48
1.0
  6
BYLAYER
100
AcDbLine
 10
190.2855021389179342
 20
72.5119690000000077
 30
0.0
 11
191.0865021389179219
 21
72.5119690000000077
 31
0.0
  0
LINE
  5
384
100
AcDbEntity
  8
0
 62
0
370
-1
 48
1.0
  6
BYLAYER
100
AcDbLine
 10
191.0865021389179219
 20
72.5119690000000077
 30
0.0
 11
191.0865021389179219
 21
75.6125690000000077
 31
0.0
  0
LINE
  5
385
100
AcDbEntity
  8
0
 62
0
370
-1
 48
1.0
  6
BYLAYER
100
AcDbLine
 10
191.0865021389179219
 20
75.6125690000000077
 30
0.0
 11
190.2855021389179342
 21
75.6125690000000077
 31
0.0
  0
LINE
  5
386
100
AcDbEntity
  8
0
 62
0
370
-1
 48
1.0
  6
BYLAYER
100
AcDbLine
 10
190.2855021389179342
 20
75.6125690000000077
 30
0.0
 11
190.2855021389179342
 21
81.4143690000000078
 31
0.0
  0
LINE
  5
387
100
AcDbEntity
  8
0
 62
0
370
-1
 48
1.0
  6
BYLAYER
100
AcDbLine
 10
190.2855021389179342
 20
81.4143690000000078
 30
0.0
 11
191.0865021389179219
 21
81.4143690000000078
 31
0.0
  0
LINE
  5
388
100
AcDbEntity
  8
0
 62
0
370
-1
 48
1.0
  6
BYLAYER
100
AcDbLine
 10
191.0865021389179219
 20
81.4143690000000078
 30
0.0
 11
191.0865021389179219
 21
84.5134690000000006
 31
0.0
  0
LINE
  5
389
100
AcDbEntity
  8
0
 62
0
370
-1
 48
1.0
  6
BYLAYER
100
AcDbLine
 10
191.0865021389179219
 20
84.5134690000000006
 30
0.0
 11
190.2855021389179342
 21
84.5134690000000006
 31
0.0
  0
LINE
  5
38A
100
AcDbEntity
  8
0
 62
0
370
-1
 48
1.0
  6
BYLAYER
100
AcDbLine
 10
190.2855021389179342
 20
84.5134690000000006
 30
0.0
 11
190.2855021389179342
 21
85.513969000000003
 31
0.0
  0
LINE
  5
38B
100
AcDbEntity
  8
0
 62
0
370
-1
 48
1.0
  6
BYLAYER
100
AcDbLine
 10
190.2855021389179342
 20
85.513969000000003
 30
0.0
 11
176.286502138917939
 21
85.513969000000003
 31
0.0
  0
LINE
  5
38C
100
AcDbEntity
  8
0
 62
0
370
-1
 48
1.0
  6
BYLAYER
100
AcDbLine
 10
195.3365021389179219
 20
85.513969000000003
 30
0.0
 11
195.3365021389179219
 21
84.5134690000000006
 31
0.0
  0
LINE
  5
38D
100
AcDbEntity
  8
0
 62
0
370
-1
 48
1.0
  6
BYLAYER
100
AcDbLine
 10
195.3365021389179219
 20
84.5134690000000006
 30
0.0
 11
194.5375021389179153
 21
84.5134690000000006
 31
0.0
  0
LINE
  5
38E
100
AcDbEntity
  8
0
 62
0
370
-1
 48
1.0
  6
BYLAYER
100
AcDbLine
 10
194.5375021389179153
 20
84.5134690000000006
 30
0.0
 11
194.5375021389179153
 21
81.4143690000000078
 31
0.0
  0
LINE
  5
38F
100
AcDbEntity
  8
0
 62
0
370
-1
 48
1.0
  6
BYLAYER
100
AcDbLine
 10
194.5375021389179153
 20
81.4143690000000078
 30
0.0
 11
195.3365021389179219
 21
81.4143690000000078
 31
0.0
  0
LINE
  5
390
100
AcDbEntity
  8
0
 62
0
370
-1
 48
1.0
  6
BYLAYER
100
AcDbLine
 10
195.3365021389179219
 20
81.4143690000000078
 30
0.0
 11
195.3365021389179219
 21
75.6125690000000077
 31
0.0
  0
LINE
  5
391
100
AcDbEntity
  8
0
 62
0
370
-1
 48
1.0
  6
BYLAYER
100
AcDbLine
 10
195.3365021389179219
 20
75.6125690000000077
 30
0.0
 11
194.5375021389179153
 21
75.6125690000000077
 31
0.0
  0
LINE
  5
392
100
AcDbEntity
  8
0
 62
0
370
-1
 48
1.0
  6
BYLAYER
100
AcDbLine
 10
194.5375021389179153
 20
75.6125690000000077
 30
0.0
 11
194.5375021389179153
 21
72.5119690000000077
 31
0.0
  0
LINE
  5
393
100
AcDbEntity
  8
0
 62
0
370
-1
 48
1.0
  6
BYLAYER
100
AcDbLine
 10
194.5375021389179153
 20
72.5119690000000077
 30
0.0
 11
195.3365021389179219
 21
72.5119690000000077
 31
0.0
  0
LINE
  5
394
100
AcDbEntity
  8
0
 62
0
370
-1
 48
1.0
  6
BYLAYER
100
AcDbLine
 10
195.3365021389179219
 20
72.5119690000000077
 30
0.0
 11
195.3365021389179219
 21
71.5129690000000124
 31
0.0
  0
LINE
  5
395
100
AcDbEntity
  8
0
 62
0
370
-1
 48
1.0
  6
BYLAYER
100
AcDbLine
 10
195.3365021389179219
 20
71.5129690000000124
 30
0.0
 11
209.3355021389179171
 21
71.5129690000000124
 31
0.0
  0
LINE
  5
396
100
AcDbEntity
  8
0
 62
0
370
-1
 48
1.0
  6
BYLAYER
100
AcDbLine
 10
209.3355021389179171
 20
71.5129690000000124
 30
0.0
 11
209.3355021389179171
 21
72.5119690000000077
 31
0.0
  0
LINE
  5
397
100
AcDbEntity
  8
0
 62
0
370
-1
 48
1.0
  6
BYLAYER
100
AcDbLine
 10
209.3355021389179171
 20
72.5119690000000077
 30
0.0
 11
210.1365021389179333
 21
72.5119690000000077
 31
0.0
  0
LINE
  5
398
100
AcDbEntity
  8
0
 62
0
370
-1
 48
1.0
  6
BYLAYER
100
AcDbLine
 10
210.1365021389179333
 20
72.5119690000000077
 30
0.0
 11
210.1365021389179333
 21
75.6125690000000077
 31
0.0
  0
LINE
  5
399
100
AcDbEntity
  8
0
 62
0
370
-1
 48
1.0
  6
BYLAYER
100
AcDbLine
 10
210.1365021389179333
 20
75.6125690000000077
 30
0.0
 11
209.3355021389179171
 21
75.6125690000000077
 31
0.0
  0
LINE
  5
39A
100
AcDbEntity
  8
0
 62
0
370
-1
 48
1.0
  6
BYLAYER
100
AcDbLine
 10
209.3355021389179171
 20
75.6125690000000077
 30
0.0
 11
209.3355021389179171
 21
81.4143690000000078
 31
0.0
  0
LINE
  5
39B
100
AcDbEntity
  8
0
 62
0
370
-1
 48
1.0
  6
BYLAYER
100
AcDbLine
 10
209.3355021389179171
 20
81.4143690000000078
 30
0.0
 11
210.1365021389179333
 21
81.4143690000000078
 31
0.0
  0
LINE
  5
39C
100
AcDbEntity
  8
0
 62
0
370
-1
 48
1.0
  6
BYLAYER
100
AcDbLine
 10
210.1365021389179333
 20
81.4143690000000078
 30
0.0
 11
210.1365021389179333
 21
84.5134690000000006
 31
0.0
  0
LINE
  5
39D
100
AcDbEntity
  8
0
 62
0
370
-1
 48
1.0
  6
BYLAYER
100
AcDbLine
 10
210.1365021389179333
 20
84.5134690000000006
 30
0.0
 11
209.3355021389179171
 21
84.5134690000000006
 31
0.0
  0
LINE
  5
39E
100
AcDbEntity
  8
0
 62
0
370
-1
 48
1.0
  6
BYLAYER
100
AcDbLine
 10
209.3355021389179171
 20
84.5134690000000006
 30
0.0
 11
209.3355021389179171
 21
85.513969000000003
 31
0.0
  0
LINE
  5
39F
100
AcDbEntity
  8
0
 62
0
370
-1
 48
1.0
  6
BYLAYER
100
AcDbLine
 10
209.3355021389179171
 20
85.513969000000003
 30
0.0
 11
195.3365021389179219
 21
85.513969000000003
 31
0.0
  0
LINE
  5
3A0
100
AcDbEntity
  8
0
 62
0
370
-1
 48
1.0
  6
BYLAYER
100
AcDbLine
 10
214.3865021389179333
 20
85.513969000000003
 30
0.0
 11
214.3865021389179333
 21
84.5134690000000006
 31
0.0
  0
LINE
  5
3A1
100
AcDbEntity
  8
0
 62
0
370
-1
 48
1.0
  6
BYLAYER
100
AcDbLine
 10
214.3865021389179333
 20
84.5134690000000006
 30
0.0
 11
213.5875021389179267
 21
84.5134690000000006
 31
0.0
  0
LINE
  5
3A2
100
AcDbEntity
  8
0
 62
0
370
-1
 48
1.0
  6
BYLAYER
100
AcDbLine
 10
213.5875021389179267
 20
84.5134690000000006
 30
0.0
 11
213.5875021389179267
 21
81.4143690000000078
 31
0.0
  0
LINE
  5
3A3
100
AcDbEntity
  8
0
 62
0
370
-1
 48
1.0
  6
BYLAYER
100
AcDbLine
 10
213.5875021389179267
 20
81.4143690000000078
 30
0.0
 11
214.3865021389179333
 21
81.4143690000000078
 31
0.0
  0
LINE
  5
3A4
100
AcDbEntity
  8
0
 62
0
370
-1
 48
1.0
  6
BYLAYER
100
AcDbLine
 10
214.3865021389179333
 20
81.4143690000000078
 30
0.0
 11
214.3865021389179333
 21
75.6125690000000077
 31
0.0
  0
LINE
  5
3A5
100
AcDbEntity
  8
0
 62
0
370
-1
 48
1.0
  6
BYLAYER
100
AcDbLine
 10
214.3865021389179333
 20
75.6125690000000077
 30
0.0
 11
213.5875021389179267
 21
75.6125690000000077
 31
0.0
  0
LINE
  5
3A6
100
AcDbEntity
  8
0
 62
0
370
-1
 48
1.0
  6
BYLAYER
100
AcDbLine
 10
213.5875021389179267
 20
75.6125690000000077
 30
0.0
 11
213.5875021389179267
 21
72.5119690000000077
 31
0.0
  0
LINE
  5
3A7
100
AcDbEntity
  8
0
 62
0
370
-1
 48
1.0
  6
BYLAYER
100
AcDbLine
 10
213.5875021389179267
 20
72.5119690000000077
 30
0.0
 11
214.3865021389179333
 21
72.5119690000000077
 31
0.0
  0
LINE
  5
3A8
100
AcDbEntity
  8
0
 62
0
370
-1
 48
1.0
  6
BYLAYER
100
AcDbLine
 10
214.3865021389179333
 20
72.5119690000000077
 30
0.0
 11
214.3865021389179333
 21
71.5129690000000124
 31
0.0
  0
LINE
  5
3A9
100
AcDbEntity
  8
0
 62
0
370
-1
 48
1.0
  6
BYLAYER
100
AcDbLine
 10
214.3865021389179333
 20
71.5129690000000124
 30
0.0
 11
228.3855021389179285
 21
71.5129690000000124
 31
0.0
  0
LINE
  5
3AA
100
AcDbEntity
  8
0
 62
0
370
-1
 48
1.0
  6
BYLAYER
100
AcDbLine
 10
228.3855021389179285
 20
71.5129690000000124
 30
0.0
 11
228.3855021389179285
 21
72.5119690000000077
 31
0.0
  0
LINE
  5
3AB
100
AcDbEntity
  8
0
 62
0
370
-1
 48
1.0
  6
BYLAYER
100
AcDbLine
 10
228.3855021389179285
 20
72.5119690000000077
 30
0.0
 11
229.1865021389179162
 21
72.5119690000000077
 31
0.0
  0
LINE
  5
3AC
100
AcDbEntity
  8
0
 62
0
370
-1
 48
1.0
  6
BYLAYER
100
AcDbLine
 10
229.1865021389179162
 20
72.5119690000000077
 30
0.0
 11
229.1865021389179162
 21
75.6125690000000077
 31
0.0
  0
LINE
  5
3AD
100
AcDbEntity
  8
0
 62
0
370
-1
 48
1.0
  6
BYLAYER
100
AcDbLine
 10
229.1865021389179162
 20
75.6125690000000077
 30
0.0
 11
228.3855021389179285
 21
75.6125690000000077
 31
0.0
  0
LINE
  5
3AE
100
AcDbEntity
  8
0
 62
0
370
-1
 48
1.0
  6
BYLAYER
100
AcDbLine
 10
228.3855021389179285
 20
75.6125690000000077
 30
0.0
 11
228.3855021389179285
 21
81.4143690000000078
 31
0.0
  0
LINE
  5
3AF
100
AcDbEntity
  8
0
 62
0
370
-1
 48
1.0
  6
BYLAYER
100
AcDbLine
 10
228.3855021389179285
 20
81.4143690000000078
 30
0.0
 11
229.1865021389179162
 21
81.4143690000000078
 31
0.0
  0
LINE
  5
3B0
100
AcDbEntity
  8
0
 62
0
370
-1
 48
1.0
  6
BYLAYER
100
AcDbLine
 10
229.1865021389179162
 20
81.4143690000000078
 30
0.0
 11
229.1865021389179162
 21
84.5134690000000006
 31
0.0
  0
LINE
  5
3B1
100
AcDbEntity
  8
0
 62
0
370
-1
 48
1.0
  6
BYLAYER
100
AcDbLine
 10
229.1865021389179162
 20
84.5134690000000006
 30
0.0
 11
228.3855021389179285
 21
84.5134690000000006
 31
0.0
  0
LINE
  5
3B2
100
AcDbEntity
  8
0
 62
0
370
-1
 48
1.0
  6
BYLAYER
100
AcDbLine
 10
228.3855021389179285
 20
84.5134690000000006
 30
0.0
 11
228.3855021389179285
 21
85.513969000000003
 31
0.0
  0
LINE
  5
3B3
100
AcDbEntity
  8
0
 62
0
370
-1
 48
1.0
  6
BYLAYER
100
AcDbLine
 10
228.3855021389179285
 20
85.513969000000003
 30
0.0
 11
214.3865021389179333
 21
85.513969000000003
 31
0.0
  0
LINE
  5
3B4
100
AcDbEntity
  8
0
 62
0
370
-1
 48
1.0
  6
BYLAYER
100
AcDbLine
 10
233.4365021389179162
 20
85.513969000000003
 30
0.0
 11
233.4365021389179162
 21
84.5134690000000006
 31
0.0
  0
LINE
  5
3B5
100
AcDbEntity
  8
0
 62
0
370
-1
 48
1.0
  6
BYLAYER
100
AcDbLine
 10
233.4365021389179162
 20
84.5134690000000006
 30
0.0
 11
232.6375021389179381
 21
84.5134690000000006
 31
0.0
  0
LINE
  5
3B6
100
AcDbEntity
  8
0
 62
0
370
-1
 48
1.0
  6
BYLAYER
100
AcDbLine
 10
232.6375021389179381
 20
84.5134690000000006
 30
0.0
 11
232.6375021389179381
 21
81.4143690000000078
 31
0.0
  0
LINE
  5
3B7
100
AcDbEntity
  8
0
 62
0
370
-1
 48
1.0
  6
BYLAYER
100
AcDbLine
 10
232.6375021389179381
 20
81.4143690000000078
 30
0.0
 11
233.4365021389179162
 21
81.4143690000000078
 31
0.0
  0
LINE
  5
3B8
100
AcDbEntity
  8
0
 62
0
370
-1
 48
1.0
  6
BYLAYER
100
AcDbLine
 10
233.4365021389179162
 20
81.4143690000000078
 30
0.0
 11
233.4365021389179162
 21
75.6125690000000077
 31
0.0
  0
LINE
  5
3B9
100
AcDbEntity
  8
0
 62
0
370
-1
 48
1.0
  6
BYLAYER
100
AcDbLine
 10
233.4365021389179162
 20
75.6125690000000077
 30
0.0
 11
232.6375021389179381
 21
75.6125690000000077
 31
0.0
  0
LINE
  5
3BA
100
AcDbEntity
  8
0
 62
0
370
-1
 48
1.0
  6
BYLAYER
100
AcDbLine
 10
232.6375021389179381
 20
75.6125690000000077
 30
0.0
 11
232.6375021389179381
 21
72.5119690000000077
 31
0.0
  0
LINE
  5
3BB
100
AcDbEntity
  8
0
 62
0
370
-1
 48
1.0
  6
BYLAYER
100
AcDbLine
 10
232.6375021389179381
 20
72.5119690000000077
 30
0.0
 11
233.4365021389179162
 21
72.5119690000000077
 31
0.0
  0
LINE
  5
3BC
100
AcDbEntity
  8
0
 62
0
370
-1
 48
1.0
  6
BYLAYER
100
AcDbLine
 10
233.4365021389179162
 20
72.5119690000000077
 30
0.0
 11
233.4365021389179162
 21
71.5129690000000124
 31
0.0
  0
LINE
  5
3BD
100
AcDbEntity
  8
0
 62
0
370
-1
 48
1.0
  6
BYLAYER
100
AcDbLine
 10
233.4365021389179162
 20
71.5129690000000124
 30
0.0
 11
247.4355021389179399
 21
71.5129690000000124
 31
0.0
  0
LINE
  5
3BE
100
AcDbEntity
  8
0
 62
0
370
-1
 48
1.0
  6
BYLAYER
100
AcDbLine
 10
247.4355021389179399
 20
71.5129690000000124
 30
0.0
 11
247.4355021389179399
 21
72.5119690000000077
 31
0.0
  0
LINE
  5
3BF
100
AcDbEntity
  8
0
 62
0
370
-1
 48
1.0
  6
BYLAYER
100
AcDbLine
 10
247.4355021389179399
 20
72.5119690000000077
 30
0.0
 11
248.2355021389179228
 21
72.5119690000000077
 31
0.0
  0
LINE
  5
3C0
100
AcDbEntity
  8
0
 62
0
370
-1
 48
1.0
  6
BYLAYER
100
AcDbLine
 10
248.2355021389179228
 20
72.5119690000000077
 30
0.0
 11
248.2355021389179228
 21
75.6125690000000077
 31
0.0
  0
LINE
  5
3C1
100
AcDbEntity
  8
0
 62
0
370
-1
 48
1.0
  6
BYLAYER
100
AcDbLine
 10
248.2355021389179228
 20
75.6125690000000077
 30
0.0
 11
247.4355021389179399
 21
75.6125690000000077
 31
0.0
  0
LINE
  5
3C2
100
AcDbEntity
  8
0
 62
0
370
-1
 48
1.0
  6
BYLAYER
100
AcDbLine
 10
247.4355021389179399
 20
75.6125690000000077
 30
0.0
 11
247.4355021389179399
 21
81.4143690000000078
 31
0.0
  0
LINE
  5
3C3
100
AcDbEntity
  8
0
 62
0
370
-1
 48
1.0
  6
BYLAYER
100
AcDbLine
 10
247.4355021389179399
 20
81.4143690000000078
 30
0.0
 11
248.2355021389179228
 21
81.4143690000000078
 31
0.0
  0
LINE
  5
3C4
100
AcDbEntity
  8
0
 62
0
370
-1
 48
1.0
  6
BYLAYER
100
AcDbLine
 10
248.2355021389179228
 20
81.4143690000000078
 30
0.0
 11
248.2355021389179228
 21
84.5134690000000006
 31
0.0
  0
LINE
  5
3C5
100
AcDbEntity
  8
0
 62
0
370
-1
 48
1.0
  6
BYLAYER
100
AcDbLine
 10
248.2355021389179228
 20
84.5134690000000006
 30
0.0
 11
247.4355021389179399
 21
84.5134690000000006
 31
0.0
  0
LINE
  5
3C6
100
AcDbEntity
  8
0
 62
0
370
-1
 48
1.0
  6
BYLAYER
100
AcDbLine
 10
247.4355021389179399
 20
84.5134690000000006
 30
0.0
 11
247.4355021389179399
 21
85.513969000000003
 31
0.0
  0
LINE
  5
3C7
100
AcDbEntity
  8
0
 62
0
370
-1
 48
1.0
  6
BYLAYER
100
AcDbLine
 10
247.4355021389179399
 20
85.513969000000003
 30
0.0
 11
233.4365021389179162
 21
85.513969000000003
 31
0.0
  0
LINE
  5
3C8
100
AcDbEntity
  8
0
 62
0
370
-1
 48
1.0
  6
BYLAYER
100
AcDbLine
 10
252.4845021389179465
 20
85.513969000000003
 30
0.0
 11
252.4845021389179465
 21
84.5134690000000006
 31
0.0
  0
LINE
  5
3C9
100
AcDbEntity
  8
0
 62
0
370
-1
 48
1.0
  6
BYLAYER
100
AcDbLine
 10
252.4845021389179465
 20
84.5134690000000006
 30
0.0
 11
251.687502138917921
 21
84.5134690000000006
 31
0.0
  0
LINE
  5
3CA
100
AcDbEntity
  8
0
 62
0
370
-1
 48
1.0
  6
BYLAYER
100
AcDbLine
 10
251.687502138917921
 20
84.5134690000000006
 30
0.0
 11
251.687502138917921
 21
81.4143690000000078
 31
0.0
  0
LINE
  5
3CB
100
AcDbEntity
  8
0
 62
0
370
-1
 48
1.0
  6
BYLAYER
100
AcDbLine
 10
251.687502138917921
 20
81.4143690000000078
 30
0.0
 11
252.4845021389179465
 21
81.4143690000000078
 31
0.0
  0
LINE
  5
3CC
100
AcDbEntity
  8
0
 62
0
370
-1
 48
1.0
  6
BYLAYER
100
AcDbLine
 10
252.4845021389179465
 20
81.4143690000000078
 30
0.0
 11
252.4845021389179465
 21
75.6125690000000077
 31
0.0
  0
LINE
  5
3CD
100
AcDbEntity
  8
0
 62
0
370
-1
 48
1.0
  6
BYLAYER
100
AcDbLine
 10
252.4845021389179465
 20
75.6125690000000077
 30
0.0
 11
251.687502138917921
 21
75.6125690000000077
 31
0.0
  0
LINE
  5
3CE
100
AcDbEntity
  8
0
 62
0
370
-1
 48
1.0
  6
BYLAYER
100
AcDbLine
 10
251.687502138917921
 20
75.6125690000000077
 30
0.0
 11
251.687502138917921
 21
72.5119690000000077
 31
0.0
  0
LINE
  5
3CF
100
AcDbEntity
  8
0
 62
0
370
-1
 48
1.0
  6
BYLAYER
100
AcDbLine
 10
251.687502138917921
 20
72.5119690000000077
 30
0.0
 11
252.4845021389179465
 21
72.5119690000000077
 31
0.0
  0
LINE
  5
3D0
100
AcDbEntity
  8
0
 62
0
370
-1
 48
1.0
  6
BYLAYER
100
AcDbLine
 10
252.4845021389179465
 20
72.5119690000000077
 30
0.0
 11
252.4845021389179465
 21
71.5129690000000124
 31
0.0
  0
LINE
  5
3D1
100
AcDbEntity
  8
0
 62
0
370
-1
 48
1.0
  6
BYLAYER
100
AcDbLine
 10
252.4845021389179465
 20
71.5129690000000124
 30
0.0
 11
266.4855021389179228
 21
71.5129690000000124
 31
0.0
  0
LINE
  5
3D2
100
AcDbEntity
  8
0
 62
0
370
-1
 48
1.0
  6
BYLAYER
100
AcDbLine
 10
266.4855021389179228
 20
71.5129690000000124
 30
0.0
 11
266.4855021389179228
 21
72.5119690000000077
 31
0.0
  0
LINE
  5
3D3
100
AcDbEntity
  8
0
 62
0
370
-1
 48
1.0
  6
BYLAYER
100
AcDbLine
 10
266.4855021389179228
 20
72.5119690000000077
 30
0.0
 11
267.2865021389179105
 21
72.5119690000000077
 31
0.0
  0
LINE
  5
3D4
100
AcDbEntity
  8
0
 62
0
370
-1
 48
1.0
  6
BYLAYER
100
AcDbLine
 10
267.2865021389179105
 20
72.5119690000000077
 30
0.0
 11
267.2865021389179105
 21
75.6125690000000077
 31
0.0
  0
LINE
  5
3D5
100
AcDbEntity
  8
0
 62
0
370
-1
 48
1.0
  6
BYLAYER
100
AcDbLine
 10
267.2865021389179105
 20
75.6125690000000077
 30
0.0
 11
266.4855021389179228
 21
75.6125690000000077
 31
0.0
  0
LINE
  5
3D6
100
AcDbEntity
  8
0
 62
0
370
-1
 48
1.0
  6
BYLAYER
100
AcDbLine
 10
266.4855021389179228
 20
75.6125690000000077
 30
0.0
 11
266.4855021389179228
 21
81.4143690000000078
 31
0.0
  0
LINE
  5
3D7
100
AcDbEntity
  8
0
 62
0
370
-1
 48
1.0
  6
BYLAYER
100
AcDbLine
 10
266.4855021389179228
 20
81.4143690000000078
 30
0.0
 11
267.2865021389179105
 21
81.4143690000000078
 31
0.0
  0
LINE
  5
3D8
100
AcDbEntity
  8
0
 62
0
370
-1
 48
1.0
  6
BYLAYER
100
AcDbLine
 10
267.2865021389179105
 20
81.4143690000000078
 30
0.0
 11
267.2865021389179105
 21
84.5134690000000006
 31
0.0
  0
LINE
  5
3D9
100
AcDbEntity
  8
0
 62
0
370
-1
 48
1.0
  6
BYLAYER
100
AcDbLine
 10
267.2865021389179105
 20
84.5134690000000006
 30
0.0
 11
266.4855021389179228
 21
84.5134690000000006
 31
0.0
  0
LINE
  5
3DA
100
AcDbEntity
  8
0
 62
0
370
-1
 48
1.0
  6
BYLAYER
100
AcDbLine
 10
266.4855021389179228
 20
84.5134690000000006
 30
0.0
 11
266.4855021389179228
 21
85.513969000000003
 31
0.0
  0
LINE
  5
3DB
100
AcDbEntity
  8
0
 62
0
370
-1
 48
1.0
  6
BYLAYER
100
AcDbLine
 10
266.4855021389179228
 20
85.513969000000003
 30
0.0
 11
252.4845021389179465
 21
85.513969000000003
 31
0.0
  0
LINE
  5
3DC
100
AcDbEntity
  8
0
 62
0
370
-1
 48
1.0
  6
BYLAYER
100
AcDbLine
 10
276.298502138917911
 20
85.513969000000003
 30
0.0
 11
276.298502138917911
 21
84.5134690000000006
 31
0.0
  0
LINE
  5
3DD
100
AcDbEntity
  8
0
 62
0
370
-1
 48
1.0
  6
BYLAYER
100
AcDbLine
 10
276.298502138917911
 20
84.5134690000000006
 30
0.0
 11
275.4985021389178996
 21
84.5134690000000006
 31
0.0
  0
LINE
  5
3DE
100
AcDbEntity
  8
0
 62
0
370
-1
 48
1.0
  6
BYLAYER
100
AcDbLine
 10
275.4985021389178996
 20
84.5134690000000006
 30
0.0
 11
275.4985021389178996
 21
81.4143690000000078
 31
0.0
  0
LINE
  5
3DF
100
AcDbEntity
  8
0
 62
0
370
-1
 48
1.0
  6
BYLAYER
100
AcDbLine
 10
275.4985021389178996
 20
81.4143690000000078
 30
0.0
 11
276.298502138917911
 21
81.4143690000000078
 31
0.0
  0
LINE
  5
3E0
100
AcDbEntity
  8
0
 62
0
370
-1
 48
1.0
  6
BYLAYER
100
AcDbLine
 10
276.298502138917911
 20
81.4143690000000078
 30
0.0
 11
276.298502138917911
 21
75.6125690000000077
 31
0.0
  0
LINE
  5
3E1
100
AcDbEntity
  8
0
 62
0
370
-1
 48
1.0
  6
BYLAYER
100
AcDbLine
 10
276.298502138917911
 20
75.6125690000000077
 30
0.0
 11
275.4985021389178996
 21
75.6125690000000077
 31
0.0
  0
LINE
  5
3E2
100
AcDbEntity
  8
0
 62
0
370
-1
 48
1.0
  6
BYLAYER
100
AcDbLine
 10
275.4985021389178996
 20
75.6125690000000077
 30
0.0
 11
275.4985021389178996
 21
72.5119690000000077
 31
0.0
  0
LINE
  5
3E3
100
AcDbEntity
  8
0
 62
0
370
-1
 48
1.0
  6
BYLAYER
100
AcDbLine
 10
275.4985021389178996
 20
72.5119690000000077
 30
0.0
 11
276.298502138917911
 21
72.5119690000000077
 31
0.0
  0
LINE
  5
3E4
100
AcDbEntity
  8
0
 62
0
370
-1
 48
1.0
  6
BYLAYER
100
AcDbLine
 10
276.298502138917911
 20
72.5119690000000077
 30
0.0
 11
276.298502138917911
 21
71.5129690000000124
 31
0.0
  0
LINE
  5
3E5
100
AcDbEntity
  8
0
 62
0
370
-1
 48
1.0
  6
BYLAYER
100
AcDbLine
 10
276.298502138917911
 20
71.5129690000000124
 30
0.0
 11
290.298502138917911
 21
71.5129690000000124
 31
0.0
  0
LINE
  5
3E6
100
AcDbEntity
  8
0
 62
0
370
-1
 48
1.0
  6
BYLAYER
100
AcDbLine
 10
290.298502138917911
 20
71.5129690000000124
 30
0.0
 11
290.298502138917911
 21
72.5119690000000077
 31
0.0
  0
LINE
  5
3E7
100
AcDbEntity
  8
0
 62
0
370
-1
 48
1.0
  6
BYLAYER
100
AcDbLine
 10
290.298502138917911
 20
72.5119690000000077
 30
0.0
 11
291.0985021389179224
 21
72.5119690000000077
 31
0.0
  0
LINE
  5
3E8
100
AcDbEntity
  8
0
 62
0
370
-1
 48
1.0
  6
BYLAYER
100
AcDbLine
 10
291.0985021389179224
 20
72.5119690000000077
 30
0.0
 11
291.0985021389179224
 21
75.6125690000000077
 31
0.0
  0
LINE
  5
3E9
100
AcDbEntity
  8
0
 62
0
370
-1
 48
1.0
  6
BYLAYER
100
AcDbLine
 10
291.0985021389179224
 20
75.6125690000000077
 30
0.0
 11
290.298502138917911
 21
75.6125690000000077
 31
0.0
  0
LINE
  5
3EA
100
AcDbEntity
  8
0
 62
0
370
-1
 48
1.0
  6
BYLAYER
100
AcDbLine
 10
290.298502138917911
 20
75.6125690000000077
 30
0.0
 11
290.298502138917911
 21
81.4143690000000078
 31
0.0
  0
LINE
  5
3EB
100
AcDbEntity
  8
0
 62
0
370
-1
 48
1.0
  6
BYLAYER
100
AcDbLine
 10
290.298502138917911
 20
81.4143690000000078
 30
0.0
 11
291.0985021389179224
 21
81.4143690000000078
 31
0.0
  0
LINE
  5
3EC
100
AcDbEntity
  8
0
 62
0
370
-1
 48
1.0
  6
BYLAYER
100
AcDbLine
 10
291.0985021389179224
 20
81.4143690000000078
 30
0.0
 11
291.0985021389179224
 21
84.5134690000000006
 31
0.0
  0
LINE
  5
3ED
100
AcDbEntity
  8
0
 62
0
370
-1
 48
1.0
  6
BYLAYER
100
AcDbLine
 10
291.0985021389179224
 20
84.5134690000000006
 30
0.0
 11
290.298502138917911
 21
84.5134690000000006
 31
0.0
  0
LINE
  5
3EE
100
AcDbEntity
  8
0
 62
0
370
-1
 48
1.0
  6
BYLAYER
100
AcDbLine
 10
290.298502138917911
 20
84.5134690000000006
 30
0.0
 11
290.298502138917911
 21
85.513969000000003
 31
0.0
  0
LINE
  5
3EF
100
AcDbEntity
  8
0
 62
0
370
-1
 48
1.0
  6
BYLAYER
100
AcDbLine
 10
290.298502138917911
 20
85.513969000000003
 30
0.0
 11
276.298502138917911
 21
85.513969000000003
 31
0.0
  0
LINE
  5
3F0
100
AcDbEntity
  8
0
 62
0
370
-1
 48
1.0
  6
BYLAYER
100
AcDbLine
 10
14.3612021389179354
 20
104.5643689999999992
 30
0.0
 11
14.3612021389179354
 21
103.5633690000000087
 31
0.0
  0
LINE
  5
3F1
100
AcDbEntity
  8
0
 62
0
370
-1
 48
1.0
  6
BYLAYER
100
AcDbLine
 10
14.3612021389179354
 20
103.5633690000000087
 30
0.0
 11
13.5605021389179363
 21
103.5633690000000087
 31
0.0
  0
LINE
  5
3F2
100
AcDbEntity
  8
0
 62
0
370
-1
 48
1.0
  6
BYLAYER
100
AcDbLine
 10
13.5605021389179363
 20
103.5633690000000087
 30
0.0
 11
13.5605021389179363
 21
100.4643690000000049
 31
0.0
  0
LINE
  5
3F3
100
AcDbEntity
  8
0
 62
0
370
-1
 48
1.0
  6
BYLAYER
100
AcDbLine
 10
13.5605021389179363
 20
100.4643690000000049
 30
0.0
 11
14.3612021389179354
 21
100.4643690000000049
 31
0.0
  0
LINE
  5
3F4
100
AcDbEntity
  8
0
 62
0
370
-1
 48
1.0
  6
BYLAYER
100
AcDbLine
 10
14.3612021389179354
 20
100.4643690000000049
 30
0.0
 11
14.3612021389179354
 21
94.6625690000000048
 31
0.0
  0
LINE
  5
3F5
100
AcDbEntity
  8
0
 62
0
370
-1
 48
1.0
  6
BYLAYER
100
AcDbLine
 10
14.3612021389179354
 20
94.6625690000000048
 30
0.0
 11
13.5605021389179363
 21
94.6625690000000048
 31
0.0
  0
LINE
  5
3F6
100
AcDbEntity
  8
0
 62
0
370
-1
 48
1.0
  6
BYLAYER
100
AcDbLine
 10
13.5605021389179363
 20
94.6625690000000048
 30
0.0
 11
13.5605021389179363
 21
91.5619690000000048
 31
0.0
  0
LINE
  5
3F7
100
AcDbEntity
  8
0
 62
0
370
-1
 48
1.0
  6
BYLAYER
100
AcDbLine
 10
13.5605021389179363
 20
91.5619690000000048
 30
0.0
 11
14.3612021389179354
 21
91.5619690000000048
 31
0.0
  0
LINE
  5
3F8
100
AcDbEntity
  8
0
 62
0
370
-1
 48
1.0
  6
BYLAYER
100
AcDbLine
 10
14.3612021389179354
 20
91.5619690000000048
 30
0.0
 11
14.3612021389179354
 21
90.5629690000000096
 31
0.0
  0
LINE
  5
3F9
100
AcDbEntity
  8
0
 62
0
370
-1
 48
1.0
  6
BYLAYER
100
AcDbLine
 10
14.3612021389179354
 20
90.5629690000000096
 30
0.0
 11
28.3607021389179366
 21
90.5629690000000096
 31
0.0
  0
LINE
  5
3FA
100
AcDbEntity
  8
0
 62
0
370
-1
 48
1.0
  6
BYLAYER
100
AcDbLine
 10
28.3607021389179366
 20
90.5629690000000096
 30
0.0
 11
28.3607021389179366
 21
91.5619690000000048
 31
0.0
  0
LINE
  5
3FB
100
AcDbEntity
  8
0
 62
0
370
-1
 48
1.0
  6
BYLAYER
100
AcDbLine
 10
28.3607021389179366
 20
91.5619690000000048
 30
0.0
 11
29.1599021389179356
 21
91.5619690000000048
 31
0.0
  0
LINE
  5
3FC
100
AcDbEntity
  8
0
 62
0
370
-1
 48
1.0
  6
BYLAYER
100
AcDbLine
 10
29.1599021389179356
 20
91.5619690000000048
 30
0.0
 11
29.1599021389179356
 21
94.6625690000000048
 31
0.0
  0
LINE
  5
3FD
100
AcDbEntity
  8
0
 62
0
370
-1
 48
1.0
  6
BYLAYER
100
AcDbLine
 10
29.1599021389179356
 20
94.6625690000000048
 30
0.0
 11
28.3607021389179366
 21
94.6625690000000048
 31
0.0
  0
LINE
  5
3FE
100
AcDbEntity
  8
0
 62
0
370
-1
 48
1.0
  6
BYLAYER
100
AcDbLine
 10
28.3607021389179366
 20
94.6625690000000048
 30
0.0
 11
28.3607021389179366
 21
100.4643690000000049
 31
0.0
  0
LINE
  5
3FF
100
AcDbEntity
  8
0
 62
0
370
-1
 48
1.0
  6
BYLAYER
100
AcDbLine
 10
28.3607021389179366
 20
100.4643690000000049
 30
0.0
 11
29.1599021389179356
 21
100.4643690000000049
 31
0.0
  0
LINE
  5
400
100
AcDbEntity
  8
0
 62
0
370
-1
 48
1.0
  6
BYLAYER
100
AcDbLine
 10
29.1599021389179356
 20
100.4643690000000049
 30
0.0
 11
29.1599021389179356
 21
103.5633690000000087
 31
0.0
  0
LINE
  5
401
100
AcDbEntity
  8
0
 62
0
370
-1
 48
1.0
  6
BYLAYER
100
AcDbLine
 10
29.1599021389179356
 20
103.5633690000000087
 30
0.0
 11
28.3607021389179366
 21
103.5633690000000087
 31
0.0
  0
LINE
  5
402
100
AcDbEntity
  8
0
 62
0
370
-1
 48
1.0
  6
BYLAYER
100
AcDbLine
 10
28.3607021389179366
 20
103.5633690000000087
 30
0.0
 11
28.3607021389179366
 21
104.5643689999999992
 31
0.0
  0
LINE
  5
403
100
AcDbEntity
  8
0
 62
0
370
-1
 48
1.0
  6
BYLAYER
100
AcDbLine
 10
28.3607021389179366
 20
104.5643689999999992
 30
0.0
 11
14.3612021389179354
 21
104.5643689999999992
 31
0.0
  0
LINE
  5
404
100
AcDbEntity
  8
0
 62
0
370
-1
 48
1.0
  6
BYLAYER
100
AcDbLine
 10
33.4111021389179328
 20
104.5643689999999992
 30
0.0
 11
33.4111021389179328
 21
103.5633690000000087
 31
0.0
  0
LINE
  5
405
100
AcDbEntity
  8
0
 62
0
370
-1
 48
1.0
  6
BYLAYER
100
AcDbLine
 10
33.4111021389179328
 20
103.5633690000000087
 30
0.0
 11
32.6120021389179371
 21
103.5633690000000087
 31
0.0
  0
LINE
  5
406
100
AcDbEntity
  8
0
 62
0
370
-1
 48
1.0
  6
BYLAYER
100
AcDbLine
 10
32.6120021389179371
 20
103.5633690000000087
 30
0.0
 11
32.6120021389179371
 21
100.4643690000000049
 31
0.0
  0
LINE
  5
407
100
AcDbEntity
  8
0
 62
0
370
-1
 48
1.0
  6
BYLAYER
100
AcDbLine
 10
32.6120021389179371
 20
100.4643690000000049
 30
0.0
 11
33.4111021389179328
 21
100.4643690000000049
 31
0.0
  0
LINE
  5
408
100
AcDbEntity
  8
0
 62
0
370
-1
 48
1.0
  6
BYLAYER
100
AcDbLine
 10
33.4111021389179328
 20
100.4643690000000049
 30
0.0
 11
33.4111021389179328
 21
94.6625690000000048
 31
0.0
  0
LINE
  5
409
100
AcDbEntity
  8
0
 62
0
370
-1
 48
1.0
  6
BYLAYER
100
AcDbLine
 10
33.4111021389179328
 20
94.6625690000000048
 30
0.0
 11
32.6120021389179371
 21
94.6625690000000048
 31
0.0
  0
LINE
  5
40A
100
AcDbEntity
  8
0
 62
0
370
-1
 48
1.0
  6
BYLAYER
100
AcDbLine
 10
32.6120021389179371
 20
94.6625690000000048
 30
0.0
 11
32.6120021389179371
 21
91.5619690000000048
 31
0.0
  0
LINE
  5
40B
100
AcDbEntity
  8
0
 62
0
370
-1
 48
1.0
  6
BYLAYER
100
AcDbLine
 10
32.6120021389179371
 20
91.5619690000000048
 30
0.0
 11
33.4111021389179328
 21
91.5619690000000048
 31
0.0
  0
LINE
  5
40C
100
AcDbEntity
  8
0
 62
0
370
-1
 48
1.0
  6
BYLAYER
100
AcDbLine
 10
33.4111021389179328
 20
91.5619690000000048
 30
0.0
 11
33.4111021389179328
 21
90.5629690000000096
 31
0.0
  0
LINE
  5
40D
100
AcDbEntity
  8
0
 62
0
370
-1
 48
1.0
  6
BYLAYER
100
AcDbLine
 10
33.4111021389179328
 20
90.5629690000000096
 30
0.0
 11
47.4107021389179337
 21
90.5629690000000096
 31
0.0
  0
LINE
  5
40E
100
AcDbEntity
  8
0
 62
0
370
-1
 48
1.0
  6
BYLAYER
100
AcDbLine
 10
47.4107021389179337
 20
90.5629690000000096
 30
0.0
 11
47.4107021389179337
 21
91.5619690000000048
 31
0.0
  0
LINE
  5
40F
100
AcDbEntity
  8
0
 62
0
370
-1
 48
1.0
  6
BYLAYER
100
AcDbLine
 10
47.4107021389179337
 20
91.5619690000000048
 30
0.0
 11
48.2111021389179371
 21
91.5619690000000048
 31
0.0
  0
LINE
  5
410
100
AcDbEntity
  8
0
 62
0
370
-1
 48
1.0
  6
BYLAYER
100
AcDbLine
 10
48.2111021389179371
 20
91.5619690000000048
 30
0.0
 11
48.2111021389179371
 21
94.6625690000000048
 31
0.0
  0
LINE
  5
411
100
AcDbEntity
  8
0
 62
0
370
-1
 48
1.0
  6
BYLAYER
100
AcDbLine
 10
48.2111021389179371
 20
94.6625690000000048
 30
0.0
 11
47.4107021389179337
 21
94.6625690000000048
 31
0.0
  0
LINE
  5
412
100
AcDbEntity
  8
0
 62
0
370
-1
 48
1.0
  6
BYLAYER
100
AcDbLine
 10
47.4107021389179337
 20
94.6625690000000048
 30
0.0
 11
47.4107021389179337
 21
100.4643690000000049
 31
0.0
  0
LINE
  5
413
100
AcDbEntity
  8
0
 62
0
370
-1
 48
1.0
  6
BYLAYER
100
AcDbLine
 10
47.4107021389179337
 20
100.4643690000000049
 30
0.0
 11
48.2111021389179371
 21
100.4643690000000049
 31
0.0
  0
LINE
  5
414
100
AcDbEntity
  8
0
 62
0
370
-1
 48
1.0
  6
BYLAYER
100
AcDbLine
 10
48.2111021389179371
 20
100.4643690000000049
 30
0.0
 11
48.2111021389179371
 21
103.5633690000000087
 31
0.0
  0
LINE
  5
415
100
AcDbEntity
  8
0
 62
0
370
-1
 48
1.0
  6
BYLAYER
100
AcDbLine
 10
48.2111021389179371
 20
103.5633690000000087
 30
0.0
 11
47.4107021389179337
 21
103.5633690000000087
 31
0.0
  0
LINE
  5
416
100
AcDbEntity
  8
0
 62
0
370
-1
 48
1.0
  6
BYLAYER
100
AcDbLine
 10
47.4107021389179337
 20
103.5633690000000087
 30
0.0
 11
47.4107021389179337
 21
104.5643689999999992
 31
0.0
  0
LINE
  5
417
100
AcDbEntity
  8
0
 62
0
370
-1
 48
1.0
  6
BYLAYER
100
AcDbLine
 10
47.4107021389179337
 20
104.5643689999999992
 30
0.0
 11
33.4111021389179328
 21
104.5643689999999992
 31
0.0
  0
LINE
  5
418
100
AcDbEntity
  8
0
 62
0
370
-1
 48
1.0
  6
BYLAYER
100
AcDbLine
 10
52.4611021389179371
 20
104.5643689999999992
 30
0.0
 11
52.4611021389179371
 21
103.5633690000000087
 31
0.0
  0
LINE
  5
419
100
AcDbEntity
  8
0
 62
0
370
-1
 48
1.0
  6
BYLAYER
100
AcDbLine
 10
52.4611021389179371
 20
103.5633690000000087
 30
0.0
 11
51.6620021389179342
 21
103.5633690000000087
 31
0.0
  0
LINE
  5
41A
100
AcDbEntity
  8
0
 62
0
370
-1
 48
1.0
  6
BYLAYER
100
AcDbLine
 10
51.6620021389179342
 20
103.5633690000000087
 30
0.0
 11
51.6620021389179342
 21
100.4643690000000049
 31
0.0
  0
LINE
  5
41B
100
AcDbEntity
  8
0
 62
0
370
-1
 48
1.0
  6
BYLAYER
100
AcDbLine
 10
51.6620021389179342
 20
100.4643690000000049
 30
0.0
 11
52.4611021389179371
 21
100.4643690000000049
 31
0.0
  0
LINE
  5
41C
100
AcDbEntity
  8
0
 62
0
370
-1
 48
1.0
  6
BYLAYER
100
AcDbLine
 10
52.4611021389179371
 20
100.4643690000000049
 30
0.0
 11
52.4611021389179371
 21
94.6625690000000048
 31
0.0
  0
LINE
  5
41D
100
AcDbEntity
  8
0
 62
0
370
-1
 48
1.0
  6
BYLAYER
100
AcDbLine
 10
52.4611021389179371
 20
94.6625690000000048
 30
0.0
 11
51.6620021389179342
 21
94.6625690000000048
 31
0.0
  0
LINE
  5
41E
100
AcDbEntity
  8
0
 62
0
370
-1
 48
1.0
  6
BYLAYER
100
AcDbLine
 10
51.6620021389179342
 20
94.6625690000000048
 30
0.0
 11
51.6620021389179342
 21
91.5619690000000048
 31
0.0
  0
LINE
  5
41F
100
AcDbEntity
  8
0
 62
0
370
-1
 48
1.0
  6
BYLAYER
100
AcDbLine
 10
51.6620021389179342
 20
91.5619690000000048
 30
0.0
 11
52.4611021389179371
 21
91.5619690000000048
 31
0.0
  0
LINE
  5
420
100
AcDbEntity
  8
0
 62
0
370
-1
 48
1.0
  6
BYLAYER
100
AcDbLine
 10
52.4611021389179371
 20
91.5619690000000048
 30
0.0
 11
52.4611021389179371
 21
90.5629690000000096
 31
0.0
  0
LINE
  5
421
100
AcDbEntity
  8
0
 62
0
370
-1
 48
1.0
  6
BYLAYER
100
AcDbLine
 10
52.4611021389179371
 20
90.5629690000000096
 30
0.0
 11
66.4607021389179238
 21
90.5629690000000096
 31
0.0
  0
LINE
  5
422
100
AcDbEntity
  8
0
 62
0
370
-1
 48
1.0
  6
BYLAYER
100
AcDbLine
 10
66.4607021389179238
 20
90.5629690000000096
 30
0.0
 11
66.4607021389179238
 21
91.5619690000000048
 31
0.0
  0
LINE
  5
423
100
AcDbEntity
  8
0
 62
0
370
-1
 48
1.0
  6
BYLAYER
100
AcDbLine
 10
66.4607021389179238
 20
91.5619690000000048
 30
0.0
 11
67.2611021389179484
 21
91.5619690000000048
 31
0.0
  0
LINE
  5
424
100
AcDbEntity
  8
0
 62
0
370
-1
 48
1.0
  6
BYLAYER
100
AcDbLine
 10
67.2611021389179484
 20
91.5619690000000048
 30
0.0
 11
67.2611021389179484
 21
94.6625690000000048
 31
0.0
  0
LINE
  5
425
100
AcDbEntity
  8
0
 62
0
370
-1
 48
1.0
  6
BYLAYER
100
AcDbLine
 10
67.2611021389179484
 20
94.6625690000000048
 30
0.0
 11
66.4607021389179238
 21
94.6625690000000048
 31
0.0
  0
LINE
  5
426
100
AcDbEntity
  8
0
 62
0
370
-1
 48
1.0
  6
BYLAYER
100
AcDbLine
 10
66.4607021389179238
 20
94.6625690000000048
 30
0.0
 11
66.4607021389179238
 21
100.4643690000000049
 31
0.0
  0
LINE
  5
427
100
AcDbEntity
  8
0
 62
0
370
-1
 48
1.0
  6
BYLAYER
100
AcDbLine
 10
66.4607021389179238
 20
100.4643690000000049
 30
0.0
 11
67.2611021389179484
 21
100.4643690000000049
 31
0.0
  0
LINE
  5
428
100
AcDbEntity
  8
0
 62
0
370
-1
 48
1.0
  6
BYLAYER
100
AcDbLine
 10
67.2611021389179484
 20
100.4643690000000049
 30
0.0
 11
67.2611021389179484
 21
103.5633690000000087
 31
0.0
  0
LINE
  5
429
100
AcDbEntity
  8
0
 62
0
370
-1
 48
1.0
  6
BYLAYER
100
AcDbLine
 10
67.2611021389179484
 20
103.5633690000000087
 30
0.0
 11
66.4607021389179238
 21
103.5633690000000087
 31
0.0
  0
LINE
  5
42A
100
AcDbEntity
  8
0
 62
0
370
-1
 48
1.0
  6
BYLAYER
100
AcDbLine
 10
66.4607021389179238
 20
103.5633690000000087
 30
0.0
 11
66.4607021389179238
 21
104.5643689999999992
 31
0.0
  0
LINE
  5
42B
100
AcDbEntity
  8
0
 62
0
370
-1
 48
1.0
  6
BYLAYER
100
AcDbLine
 10
66.4607021389179238
 20
104.5643689999999992
 30
0.0
 11
52.4611021389179371
 21
104.5643689999999992
 31
0.0
  0
LINE
  5
42C
100
AcDbEntity
  8
0
 62
0
370
-1
 48
1.0
  6
BYLAYER
100
AcDbLine
 10
71.5111021389179484
 20
104.5643689999999992
 30
0.0
 11
71.5111021389179484
 21
103.5633690000000087
 31
0.0
  0
LINE
  5
42D
100
AcDbEntity
  8
0
 62
0
370
-1
 48
1.0
  6
BYLAYER
100
AcDbLine
 10
71.5111021389179484
 20
103.5633690000000087
 30
0.0
 11
70.7120021389179385
 21
103.5633690000000087
 31
0.0
  0
LINE
  5
42E
100
AcDbEntity
  8
0
 62
0
370
-1
 48
1.0
  6
BYLAYER
100
AcDbLine
 10
70.7120021389179385
 20
103.5633690000000087
 30
0.0
 11
70.7120021389179385
 21
100.4643690000000049
 31
0.0
  0
LINE
  5
42F
100
AcDbEntity
  8
0
 62
0
370
-1
 48
1.0
  6
BYLAYER
100
AcDbLine
 10
70.7120021389179385
 20
100.4643690000000049
 30
0.0
 11
71.5111021389179484
 21
100.4643690000000049
 31
0.0
  0
LINE
  5
430
100
AcDbEntity
  8
0
 62
0
370
-1
 48
1.0
  6
BYLAYER
100
AcDbLine
 10
71.5111021389179484
 20
100.4643690000000049
 30
0.0
 11
71.5111021389179484
 21
94.6625690000000048
 31
0.0
  0
LINE
  5
431
100
AcDbEntity
  8
0
 62
0
370
-1
 48
1.0
  6
BYLAYER
100
AcDbLine
 10
71.5111021389179484
 20
94.6625690000000048
 30
0.0
 11
70.7120021389179385
 21
94.6625690000000048
 31
0.0
  0
LINE
  5
432
100
AcDbEntity
  8
0
 62
0
370
-1
 48
1.0
  6
BYLAYER
100
AcDbLine
 10
70.7120021389179385
 20
94.6625690000000048
 30
0.0
 11
70.7120021389179385
 21
91.5619690000000048
 31
0.0
  0
LINE
  5
433
100
AcDbEntity
  8
0
 62
0
370
-1
 48
1.0
  6
BYLAYER
100
AcDbLine
 10
70.7120021389179385
 20
91.5619690000000048
 30
0.0
 11
71.5111021389179484
 21
91.5619690000000048
 31
0.0
  0
LINE
  5
434
100
AcDbEntity
  8
0
 62
0
370
-1
 48
1.0
  6
BYLAYER
100
AcDbLine
 10
71.5111021389179484
 20
91.5619690000000048
 30
0.0
 11
71.5111021389179484
 21
90.5629690000000096
 31
0.0
  0
LINE
  5
435
100
AcDbEntity
  8
0
 62
0
370
-1
 48
1.0
  6
BYLAYER
100
AcDbLine
 10
71.5111021389179484
 20
90.5629690000000096
 30
0.0
 11
85.5107021389179351
 21
90.5629690000000096
 31
0.0
  0
LINE
  5
436
100
AcDbEntity
  8
0
 62
0
370
-1
 48
1.0
  6
BYLAYER
100
AcDbLine
 10
85.5107021389179351
 20
90.5629690000000096
 30
0.0
 11
85.5107021389179351
 21
91.5619690000000048
 31
0.0
  0
LINE
  5
437
100
AcDbEntity
  8
0
 62
0
370
-1
 48
1.0
  6
BYLAYER
100
AcDbLine
 10
85.5107021389179351
 20
91.5619690000000048
 30
0.0
 11
86.3111021389179314
 21
91.5619690000000048
 31
0.0
  0
LINE
  5
438
100
AcDbEntity
  8
0
 62
0
370
-1
 48
1.0
  6
BYLAYER
100
AcDbLine
 10
86.3111021389179314
 20
91.5619690000000048
 30
0.0
 11
86.3111021389179314
 21
94.6625690000000048
 31
0.0
  0
LINE
  5
439
100
AcDbEntity
  8
0
 62
0
370
-1
 48
1.0
  6
BYLAYER
100
AcDbLine
 10
86.3111021389179314
 20
94.6625690000000048
 30
0.0
 11
85.5107021389179351
 21
94.6625690000000048
 31
0.0
  0
LINE
  5
43A
100
AcDbEntity
  8
0
 62
0
370
-1
 48
1.0
  6
BYLAYER
100
AcDbLine
 10
85.5107021389179351
 20
94.6625690000000048
 30
0.0
 11
85.5107021389179351
 21
100.4643690000000049
 31
0.0
  0
LINE
  5
43B
100
AcDbEntity
  8
0
 62
0
370
-1
 48
1.0
  6
BYLAYER
100
AcDbLine
 10
85.5107021389179351
 20
100.4643690000000049
 30
0.0
 11
86.3111021389179314
 21
100.4643690000000049
 31
0.0
  0
LINE
  5
43C
100
AcDbEntity
  8
0
 62
0
370
-1
 48
1.0
  6
BYLAYER
100
AcDbLine
 10
86.3111021389179314
 20
100.4643690000000049
 30
0.0
 11
86.3111021389179314
 21
103.5633690000000087
 31
0.0
  0
LINE
  5
43D
100
AcDbEntity
  8
0
 62
0
370
-1
 48
1.0
  6
BYLAYER
100
AcDbLine
 10
86.3111021389179314
 20
103.5633690000000087
 30
0.0
 11
85.5107021389179351
 21
103.5633690000000087
 31
0.0
  0
LINE
  5
43E
100
AcDbEntity
  8
0
 62
0
370
-1
 48
1.0
  6
BYLAYER
100
AcDbLine
 10
85.5107021389179351
 20
103.5633690000000087
 30
0.0
 11
85.5107021389179351
 21
104.5643689999999992
 31
0.0
  0
LINE
  5
43F
100
AcDbEntity
  8
0
 62
0
370
-1
 48
1.0
  6
BYLAYER
100
AcDbLine
 10
85.5107021389179351
 20
104.5643689999999992
 30
0.0
 11
71.5111021389179484
 21
104.5643689999999992
 31
0.0
  0
LINE
  5
440
100
AcDbEntity
  8
0
 62
0
370
-1
 48
1.0
  6
BYLAYER
100
AcDbLine
 10
90.5611021389179314
 20
104.5643689999999992
 30
0.0
 11
90.5611021389179314
 21
103.5633690000000087
 31
0.0
  0
LINE
  5
441
100
AcDbEntity
  8
0
 62
0
370
-1
 48
1.0
  6
BYLAYER
100
AcDbLine
 10
90.5611021389179314
 20
103.5633690000000087
 30
0.0
 11
89.7620021389179215
 21
103.5633690000000087
 31
0.0
  0
LINE
  5
442
100
AcDbEntity
  8
0
 62
0
370
-1
 48
1.0
  6
BYLAYER
100
AcDbLine
 10
89.7620021389179215
 20
103.5633690000000087
 30
0.0
 11
89.7620021389179215
 21
100.4643690000000049
 31
0.0
  0
LINE
  5
443
100
AcDbEntity
  8
0
 62
0
370
-1
 48
1.0
  6
BYLAYER
100
AcDbLine
 10
89.7620021389179215
 20
100.4643690000000049
 30
0.0
 11
90.5611021389179314
 21
100.4643690000000049
 31
0.0
  0
LINE
  5
444
100
AcDbEntity
  8
0
 62
0
370
-1
 48
1.0
  6
BYLAYER
100
AcDbLine
 10
90.5611021389179314
 20
100.4643690000000049
 30
0.0
 11
90.5611021389179314
 21
94.6625690000000048
 31
0.0
  0
LINE
  5
445
100
AcDbEntity
  8
0
 62
0
370
-1
 48
1.0
  6
BYLAYER
100
AcDbLine
 10
90.5611021389179314
 20
94.6625690000000048
 30
0.0
 11
89.7620021389179215
 21
94.6625690000000048
 31
0.0
  0
LINE
  5
446
100
AcDbEntity
  8
0
 62
0
370
-1
 48
1.0
  6
BYLAYER
100
AcDbLine
 10
89.7620021389179215
 20
94.6625690000000048
 30
0.0
 11
89.7620021389179215
 21
91.5619690000000048
 31
0.0
  0
LINE
  5
447
100
AcDbEntity
  8
0
 62
0
370
-1
 48
1.0
  6
BYLAYER
100
AcDbLine
 10
89.7620021389179215
 20
91.5619690000000048
 30
0.0
 11
90.5611021389179314
 21
91.5619690000000048
 31
0.0
  0
LINE
  5
448
100
AcDbEntity
  8
0
 62
0
370
-1
 48
1.0
  6
BYLAYER
100
AcDbLine
 10
90.5611021389179314
 20
91.5619690000000048
 30
0.0
 11
90.5611021389179314
 21
90.5629690000000096
 31
0.0
  0
LINE
  5
449
100
AcDbEntity
  8
0
 62
0
370
-1
 48
1.0
  6
BYLAYER
100
AcDbLine
 10
90.5611021389179314
 20
90.5629690000000096
 30
0.0
 11
104.5605021389179399
 21
90.5629690000000096
 31
0.0
  0
LINE
  5
44A
100
AcDbEntity
  8
0
 62
0
370
-1
 48
1.0
  6
BYLAYER
100
AcDbLine
 10
104.5605021389179399
 20
90.5629690000000096
 30
0.0
 11
104.5605021389179399
 21
91.5619690000000048
 31
0.0
  0
LINE
  5
44B
100
AcDbEntity
  8
0
 62
0
370
-1
 48
1.0
  6
BYLAYER
100
AcDbLine
 10
104.5605021389179399
 20
91.5619690000000048
 30
0.0
 11
105.3605021389179228
 21
91.5619690000000048
 31
0.0
  0
LINE
  5
44C
100
AcDbEntity
  8
0
 62
0
370
-1
 48
1.0
  6
BYLAYER
100
AcDbLine
 10
105.3605021389179228
 20
91.5619690000000048
 30
0.0
 11
105.3605021389179228
 21
94.6625690000000048
 31
0.0
  0
LINE
  5
44D
100
AcDbEntity
  8
0
 62
0
370
-1
 48
1.0
  6
BYLAYER
100
AcDbLine
 10
105.3605021389179228
 20
94.6625690000000048
 30
0.0
 11
104.5605021389179399
 21
94.6625690000000048
 31
0.0
  0
LINE
  5
44E
100
AcDbEntity
  8
0
 62
0
370
-1
 48
1.0
  6
BYLAYER
100
AcDbLine
 10
104.5605021389179399
 20
94.6625690000000048
 30
0.0
 11
104.5605021389179399
 21
100.4643690000000049
 31
0.0
  0
LINE
  5
44F
100
AcDbEntity
  8
0
 62
0
370
-1
 48
1.0
  6
BYLAYER
100
AcDbLine
 10
104.5605021389179399
 20
100.4643690000000049
 30
0.0
 11
105.3605021389179228
 21
100.4643690000000049
 31
0.0
  0
LINE
  5
450
100
AcDbEntity
  8
0
 62
0
370
-1
 48
1.0
  6
BYLAYER
100
AcDbLine
 10
105.3605021389179228
 20
100.4643690000000049
 30
0.0
 11
105.3605021389179228
 21
103.5633690000000087
 31
0.0
  0
LINE
  5
451
100
AcDbEntity
  8
0
 62
0
370
-1
 48
1.0
  6
BYLAYER
100
AcDbLine
 10
105.3605021389179228
 20
103.5633690000000087
 30
0.0
 11
104.5605021389179399
 21
103.5633690000000087
 31
0.0
  0
LINE
  5
452
100
AcDbEntity
  8
0
 62
0
370
-1
 48
1.0
  6
BYLAYER
100
AcDbLine
 10
104.5605021389179399
 20
103.5633690000000087
 30
0.0
 11
104.5605021389179399
 21
104.5643689999999992
 31
0.0
  0
LINE
  5
453
100
AcDbEntity
  8
0
 62
0
370
-1
 48
1.0
  6
BYLAYER
100
AcDbLine
 10
104.5605021389179399
 20
104.5643689999999992
 30
0.0
 11
90.5611021389179314
 21
104.5643689999999992
 31
0.0
  0
LINE
  5
454
100
AcDbEntity
  8
0
 62
0
370
-1
 48
1.0
  6
BYLAYER
100
AcDbLine
 10
109.6095021389179465
 20
104.5643689999999992
 30
0.0
 11
109.6095021389179465
 21
103.5633690000000087
 31
0.0
  0
LINE
  5
455
100
AcDbEntity
  8
0
 62
0
370
-1
 48
1.0
  6
BYLAYER
100
AcDbLine
 10
109.6095021389179465
 20
103.5633690000000087
 30
0.0
 11
108.812502138917921
 21
103.5633690000000087
 31
0.0
  0
LINE
  5
456
100
AcDbEntity
  8
0
 62
0
370
-1
 48
1.0
  6
BYLAYER
100
AcDbLine
 10
108.812502138917921
 20
103.5633690000000087
 30
0.0
 11
108.812502138917921
 21
100.4643690000000049
 31
0.0
  0
LINE
  5
457
100
AcDbEntity
  8
0
 62
0
370
-1
 48
1.0
  6
BYLAYER
100
AcDbLine
 10
108.812502138917921
 20
100.4643690000000049
 30
0.0
 11
109.6095021389179465
 21
100.4643690000000049
 31
0.0
  0
LINE
  5
458
100
AcDbEntity
  8
0
 62
0
370
-1
 48
1.0
  6
BYLAYER
100
AcDbLine
 10
109.6095021389179465
 20
100.4643690000000049
 30
0.0
 11
109.6095021389179465
 21
94.6625690000000048
 31
0.0
  0
LINE
  5
459
100
AcDbEntity
  8
0
 62
0
370
-1
 48
1.0
  6
BYLAYER
100
AcDbLine
 10
109.6095021389179465
 20
94.6625690000000048
 30
0.0
 11
108.812502138917921
 21
94.6625690000000048
 31
0.0
  0
LINE
  5
45A
100
AcDbEntity
  8
0
 62
0
370
-1
 48
1.0
  6
BYLAYER
100
AcDbLine
 10
108.812502138917921
 20
94.6625690000000048
 30
0.0
 11
108.812502138917921
 21
91.5619690000000048
 31
0.0
  0
LINE
  5
45B
100
AcDbEntity
  8
0
 62
0
370
-1
 48
1.0
  6
BYLAYER
100
AcDbLine
 10
108.812502138917921
 20
91.5619690000000048
 30
0.0
 11
109.6095021389179465
 21
91.5619690000000048
 31
0.0
  0
LINE
  5
45C
100
AcDbEntity
  8
0
 62
0
370
-1
 48
1.0
  6
BYLAYER
100
AcDbLine
 10
109.6095021389179465
 20
91.5619690000000048
 30
0.0
 11
109.6095021389179465
 21
90.5629690000000096
 31
0.0
  0
LINE
  5
45D
100
AcDbEntity
  8
0
 62
0
370
-1
 48
1.0
  6
BYLAYER
100
AcDbLine
 10
109.6095021389179465
 20
90.5629690000000096
 30
0.0
 11
123.6105021389179228
 21
90.5629690000000096
 31
0.0
  0
LINE
  5
45E
100
AcDbEntity
  8
0
 62
0
370
-1
 48
1.0
  6
BYLAYER
100
AcDbLine
 10
123.6105021389179228
 20
90.5629690000000096
 30
0.0
 11
123.6105021389179228
 21
91.5619690000000048
 31
0.0
  0
LINE
  5
45F
100
AcDbEntity
  8
0
 62
0
370
-1
 48
1.0
  6
BYLAYER
100
AcDbLine
 10
123.6105021389179228
 20
91.5619690000000048
 30
0.0
 11
124.411502138917939
 21
91.5619690000000048
 31
0.0
  0
LINE
  5
460
100
AcDbEntity
  8
0
 62
0
370
-1
 48
1.0
  6
BYLAYER
100
AcDbLine
 10
124.411502138917939
 20
91.5619690000000048
 30
0.0
 11
124.411502138917939
 21
94.6625690000000048
 31
0.0
  0
LINE
  5
461
100
AcDbEntity
  8
0
 62
0
370
-1
 48
1.0
  6
BYLAYER
100
AcDbLine
 10
124.411502138917939
 20
94.6625690000000048
 30
0.0
 11
123.6105021389179228
 21
94.6625690000000048
 31
0.0
  0
LINE
  5
462
100
AcDbEntity
  8
0
 62
0
370
-1
 48
1.0
  6
BYLAYER
100
AcDbLine
 10
123.6105021389179228
 20
94.6625690000000048
 30
0.0
 11
123.6105021389179228
 21
100.4643690000000049
 31
0.0
  0
LINE
  5
463
100
AcDbEntity
  8
0
 62
0
370
-1
 48
1.0
  6
BYLAYER
100
AcDbLine
 10
123.6105021389179228
 20
100.4643690000000049
 30
0.0
 11
124.411502138917939
 21
100.4643690000000049
 31
0.0
  0
LINE
  5
464
100
AcDbEntity
  8
0
 62
0
370
-1
 48
1.0
  6
BYLAYER
100
AcDbLine
 10
124.411502138917939
 20
100.4643690000000049
 30
0.0
 11
124.411502138917939
 21
103.5633690000000087
 31
0.0
  0
LINE
  5
465
100
AcDbEntity
  8
0
 62
0
370
-1
 48
1.0
  6
BYLAYER
100
AcDbLine
 10
124.411502138917939
 20
103.5633690000000087
 30
0.0
 11
123.6105021389179228
 21
103.5633690000000087
 31
0.0
  0
LINE
  5
466
100
AcDbEntity
  8
0
 62
0
370
-1
 48
1.0
  6
BYLAYER
100
AcDbLine
 10
123.6105021389179228
 20
103.5633690000000087
 30
0.0
 11
123.6105021389179228
 21
104.5643689999999992
 31
0.0
  0
LINE
  5
467
100
AcDbEntity
  8
0
 62
0
370
-1
 48
1.0
  6
BYLAYER
100
AcDbLine
 10
123.6105021389179228
 20
104.5643689999999992
 30
0.0
 11
109.6095021389179465
 21
104.5643689999999992
 31
0.0
  0
LINE
  5
468
100
AcDbEntity
  8
0
 62
0
370
-1
 48
1.0
  6
BYLAYER
100
AcDbLine
 10
128.661502138917939
 20
104.5643689999999992
 30
0.0
 11
128.661502138917939
 21
103.5633690000000087
 31
0.0
  0
LINE
  5
469
100
AcDbEntity
  8
0
 62
0
370
-1
 48
1.0
  6
BYLAYER
100
AcDbLine
 10
128.661502138917939
 20
103.5633690000000087
 30
0.0
 11
127.8605021389179228
 21
103.5633690000000087
 31
0.0
  0
LINE
  5
46A
100
AcDbEntity
  8
0
 62
0
370
-1
 48
1.0
  6
BYLAYER
100
AcDbLine
 10
127.8605021389179228
 20
103.5633690000000087
 30
0.0
 11
127.8605021389179228
 21
100.4643690000000049
 31
0.0
  0
LINE
  5
46B
100
AcDbEntity
  8
0
 62
0
370
-1
 48
1.0
  6
BYLAYER
100
AcDbLine
 10
127.8605021389179228
 20
100.4643690000000049
 30
0.0
 11
128.661502138917939
 21
100.4643690000000049
 31
0.0
  0
LINE
  5
46C
100
AcDbEntity
  8
0
 62
0
370
-1
 48
1.0
  6
BYLAYER
100
AcDbLine
 10
128.661502138917939
 20
100.4643690000000049
 30
0.0
 11
128.661502138917939
 21
94.6625690000000048
 31
0.0
  0
LINE
  5
46D
100
AcDbEntity
  8
0
 62
0
370
-1
 48
1.0
  6
BYLAYER
100
AcDbLine
 10
128.661502138917939
 20
94.6625690000000048
 30
0.0
 11
127.8605021389179228
 21
94.6625690000000048
 31
0.0
  0
LINE
  5
46E
100
AcDbEntity
  8
0
 62
0
370
-1
 48
1.0
  6
BYLAYER
100
AcDbLine
 10
127.8605021389179228
 20
94.6625690000000048
 30
0.0
 11
127.8605021389179228
 21
91.5619690000000048
 31
0.0
  0
LINE
  5
46F
100
AcDbEntity
  8
0
 62
0
370
-1
 48
1.0
  6
BYLAYER
100
AcDbLine
 10
127.8605021389179228
 20
91.5619690000000048
 30
0.0
 11
128.661502138917939
 21
91.5619690000000048
 31
0.0
  0
LINE
  5
470
100
AcDbEntity
  8
0
 62
0
370
-1
 48
1.0
  6
BYLAYER
100
AcDbLine
 10
128.661502138917939
 20
91.5619690000000048
 30
0.0
 11
128.661502138917939
 21
90.5629690000000096
 31
0.0
  0
LINE
  5
471
100
AcDbEntity
  8
0
 62
0
370
-1
 48
1.0
  6
BYLAYER
100
AcDbLine
 10
128.661502138917939
 20
90.5629690000000096
 30
0.0
 11
142.6605021389179342
 21
90.5629690000000096
 31
0.0
  0
LINE
  5
472
100
AcDbEntity
  8
0
 62
0
370
-1
 48
1.0
  6
BYLAYER
100
AcDbLine
 10
142.6605021389179342
 20
90.5629690000000096
 30
0.0
 11
142.6605021389179342
 21
91.5619690000000048
 31
0.0
  0
LINE
  5
473
100
AcDbEntity
  8
0
 62
0
370
-1
 48
1.0
  6
BYLAYER
100
AcDbLine
 10
142.6605021389179342
 20
91.5619690000000048
 30
0.0
 11
143.4615021389179219
 21
91.5619690000000048
 31
0.0
  0
LINE
  5
474
100
AcDbEntity
  8
0
 62
0
370
-1
 48
1.0
  6
BYLAYER
100
AcDbLine
 10
143.4615021389179219
 20
91.5619690000000048
 30
0.0
 11
143.4615021389179219
 21
94.6625690000000048
 31
0.0
  0
LINE
  5
475
100
AcDbEntity
  8
0
 62
0
370
-1
 48
1.0
  6
BYLAYER
100
AcDbLine
 10
143.4615021389179219
 20
94.6625690000000048
 30
0.0
 11
142.6605021389179342
 21
94.6625690000000048
 31
0.0
  0
LINE
  5
476
100
AcDbEntity
  8
0
 62
0
370
-1
 48
1.0
  6
BYLAYER
100
AcDbLine
 10
142.6605021389179342
 20
94.6625690000000048
 30
0.0
 11
142.6605021389179342
 21
100.4643690000000049
 31
0.0
  0
LINE
  5
477
100
AcDbEntity
  8
0
 62
0
370
-1
 48
1.0
  6
BYLAYER
100
AcDbLine
 10
142.6605021389179342
 20
100.4643690000000049
 30
0.0
 11
143.4615021389179219
 21
100.4643690000000049
 31
0.0
  0
LINE
  5
478
100
AcDbEntity
  8
0
 62
0
370
-1
 48
1.0
  6
BYLAYER
100
AcDbLine
 10
143.4615021389179219
 20
100.4643690000000049
 30
0.0
 11
143.4615021389179219
 21
103.5633690000000087
 31
0.0
  0
LINE
  5
479
100
AcDbEntity
  8
0
 62
0
370
-1
 48
1.0
  6
BYLAYER
100
AcDbLine
 10
143.4615021389179219
 20
103.5633690000000087
 30
0.0
 11
142.6605021389179342
 21
103.5633690000000087
 31
0.0
  0
LINE
  5
47A
100
AcDbEntity
  8
0
 62
0
370
-1
 48
1.0
  6
BYLAYER
100
AcDbLine
 10
142.6605021389179342
 20
103.5633690000000087
 30
0.0
 11
142.6605021389179342
 21
104.5643689999999992
 31
0.0
  0
LINE
  5
47B
100
AcDbEntity
  8
0
 62
0
370
-1
 48
1.0
  6
BYLAYER
100
AcDbLine
 10
142.6605021389179342
 20
104.5643689999999992
 30
0.0
 11
128.661502138917939
 21
104.5643689999999992
 31
0.0
  0
LINE
  5
47C
100
AcDbEntity
  8
0
 62
0
370
-1
 48
1.0
  6
BYLAYER
100
AcDbLine
 10
147.7115021389179219
 20
104.5643689999999992
 30
0.0
 11
147.7115021389179219
 21
103.5633690000000087
 31
0.0
  0
LINE
  5
47D
100
AcDbEntity
  8
0
 62
0
370
-1
 48
1.0
  6
BYLAYER
100
AcDbLine
 10
147.7115021389179219
 20
103.5633690000000087
 30
0.0
 11
146.9125021389179153
 21
103.5633690000000087
 31
0.0
  0
LINE
  5
47E
100
AcDbEntity
  8
0
 62
0
370
-1
 48
1.0
  6
BYLAYER
100
AcDbLine
 10
146.9125021389179153
 20
103.5633690000000087
 30
0.0
 11
146.9125021389179153
 21
100.4643690000000049
 31
0.0
  0
LINE
  5
47F
100
AcDbEntity
  8
0
 62
0
370
-1
 48
1.0
  6
BYLAYER
100
AcDbLine
 10
146.9125021389179153
 20
100.4643690000000049
 30
0.0
 11
147.7115021389179219
 21
100.4643690000000049
 31
0.0
  0
LINE
  5
480
100
AcDbEntity
  8
0
 62
0
370
-1
 48
1.0
  6
BYLAYER
100
AcDbLine
 10
147.7115021389179219
 20
100.4643690000000049
 30
0.0
 11
147.7115021389179219
 21
94.6625690000000048
 31
0.0
  0
LINE
  5
481
100
AcDbEntity
  8
0
 62
0
370
-1
 48
1.0
  6
BYLAYER
100
AcDbLine
 10
147.7115021389179219
 20
94.6625690000000048
 30
0.0
 11
146.9125021389179153
 21
94.6625690000000048
 31
0.0
  0
LINE
  5
482
100
AcDbEntity
  8
0
 62
0
370
-1
 48
1.0
  6
BYLAYER
100
AcDbLine
 10
146.9125021389179153
 20
94.6625690000000048
 30
0.0
 11
146.9125021389179153
 21
91.5619690000000048
 31
0.0
  0
LINE
  5
483
100
AcDbEntity
  8
0
 62
0
370
-1
 48
1.0
  6
BYLAYER
100
AcDbLine
 10
146.9125021389179153
 20
91.5619690000000048
 30
0.0
 11
147.7115021389179219
 21
91.5619690000000048
 31
0.0
  0
LINE
  5
484
100
AcDbEntity
  8
0
 62
0
370
-1
 48
1.0
  6
BYLAYER
100
AcDbLine
 10
147.7115021389179219
 20
91.5619690000000048
 30
0.0
 11
147.7115021389179219
 21
90.5629690000000096
 31
0.0
  0
LINE
  5
485
100
AcDbEntity
  8
0
 62
0
370
-1
 48
1.0
  6
BYLAYER
100
AcDbLine
 10
147.7115021389179219
 20
90.5629690000000096
 30
0.0
 11
161.7105021389179171
 21
90.5629690000000096
 31
0.0
  0
LINE
  5
486
100
AcDbEntity
  8
0
 62
0
370
-1
 48
1.0
  6
BYLAYER
100
AcDbLine
 10
161.7105021389179171
 20
90.5629690000000096
 30
0.0
 11
161.7105021389179171
 21
91.5619690000000048
 31
0.0
  0
LINE
  5
487
100
AcDbEntity
  8
0
 62
0
370
-1
 48
1.0
  6
BYLAYER
100
AcDbLine
 10
161.7105021389179171
 20
91.5619690000000048
 30
0.0
 11
162.5115021389179333
 21
91.5619690000000048
 31
0.0
  0
LINE
  5
488
100
AcDbEntity
  8
0
 62
0
370
-1
 48
1.0
  6
BYLAYER
100
AcDbLine
 10
162.5115021389179333
 20
91.5619690000000048
 30
0.0
 11
162.5115021389179333
 21
94.6625690000000048
 31
0.0
  0
LINE
  5
489
100
AcDbEntity
  8
0
 62
0
370
-1
 48
1.0
  6
BYLAYER
100
AcDbLine
 10
162.5115021389179333
 20
94.6625690000000048
 30
0.0
 11
161.7105021389179171
 21
94.6625690000000048
 31
0.0
  0
LINE
  5
48A
100
AcDbEntity
  8
0
 62
0
370
-1
 48
1.0
  6
BYLAYER
100
AcDbLine
 10
161.7105021389179171
 20
94.6625690000000048
 30
0.0
 11
161.7105021389179171
 21
100.4643690000000049
 31
0.0
  0
LINE
  5
48B
100
AcDbEntity
  8
0
 62
0
370
-1
 48
1.0
  6
BYLAYER
100
AcDbLine
 10
161.7105021389179171
 20
100.4643690000000049
 30
0.0
 11
162.5115021389179333
 21
100.4643690000000049
 31
0.0
  0
LINE
  5
48C
100
AcDbEntity
  8
0
 62
0
370
-1
 48
1.0
  6
BYLAYER
100
AcDbLine
 10
162.5115021389179333
 20
100.4643690000000049
 30
0.0
 11
162.5115021389179333
 21
103.5633690000000087
 31
0.0
  0
LINE
  5
48D
100
AcDbEntity
  8
0
 62
0
370
-1
 48
1.0
  6
BYLAYER
100
AcDbLine
 10
162.5115021389179333
 20
103.5633690000000087
 30
0.0
 11
161.7105021389179171
 21
103.5633690000000087
 31
0.0
  0
LINE
  5
48E
100
AcDbEntity
  8
0
 62
0
370
-1
 48
1.0
  6
BYLAYER
100
AcDbLine
 10
161.7105021389179171
 20
103.5633690000000087
 30
0.0
 11
161.7105021389179171
 21
104.5643689999999992
 31
0.0
  0
LINE
  5
48F
100
AcDbEntity
  8
0
 62
0
370
-1
 48
1.0
  6
BYLAYER
100
AcDbLine
 10
161.7105021389179171
 20
104.5643689999999992
 30
0.0
 11
147.7115021389179219
 21
104.5643689999999992
 31
0.0
  0
LINE
  5
490
100
AcDbEntity
  8
0
 62
0
370
-1
 48
1.0
  6
BYLAYER
100
AcDbLine
 10
166.7615021389179333
 20
104.5643689999999992
 30
0.0
 11
166.7615021389179333
 21
103.5633690000000087
 31
0.0
  0
LINE
  5
491
100
AcDbEntity
  8
0
 62
0
370
-1
 48
1.0
  6
BYLAYER
100
AcDbLine
 10
166.7615021389179333
 20
103.5633690000000087
 30
0.0
 11
165.9625021389179267
 21
103.5633690000000087
 31
0.0
  0
LINE
  5
492
100
AcDbEntity
  8
0
 62
0
370
-1
 48
1.0
  6
BYLAYER
100
AcDbLine
 10
165.9625021389179267
 20
103.5633690000000087
 30
0.0
 11
165.9625021389179267
 21
100.4643690000000049
 31
0.0
  0
LINE
  5
493
100
AcDbEntity
  8
0
 62
0
370
-1
 48
1.0
  6
BYLAYER
100
AcDbLine
 10
165.9625021389179267
 20
100.4643690000000049
 30
0.0
 11
166.7615021389179333
 21
100.4643690000000049
 31
0.0
  0
LINE
  5
494
100
AcDbEntity
  8
0
 62
0
370
-1
 48
1.0
  6
BYLAYER
100
AcDbLine
 10
166.7615021389179333
 20
100.4643690000000049
 30
0.0
 11
166.7615021389179333
 21
94.6625690000000048
 31
0.0
  0
LINE
  5
495
100
AcDbEntity
  8
0
 62
0
370
-1
 48
1.0
  6
BYLAYER
100
AcDbLine
 10
166.7615021389179333
 20
94.6625690000000048
 30
0.0
 11
165.9625021389179267
 21
94.6625690000000048
 31
0.0
  0
LINE
  5
496
100
AcDbEntity
  8
0
 62
0
370
-1
 48
1.0
  6
BYLAYER
100
AcDbLine
 10
165.9625021389179267
 20
94.6625690000000048
 30
0.0
 11
165.9625021389179267
 21
91.5619690000000048
 31
0.0
  0
LINE
  5
497
100
AcDbEntity
  8
0
 62
0
370
-1
 48
1.0
  6
BYLAYER
100
AcDbLine
 10
165.9625021389179267
 20
91.5619690000000048
 30
0.0
 11
166.7615021389179333
 21
91.5619690000000048
 31
0.0
  0
LINE
  5
498
100
AcDbEntity
  8
0
 62
0
370
-1
 48
1.0
  6
BYLAYER
100
AcDbLine
 10
166.7615021389179333
 20
91.5619690000000048
 30
0.0
 11
166.7615021389179333
 21
90.5629690000000096
 31
0.0
  0
LINE
  5
499
100
AcDbEntity
  8
0
 62
0
370
-1
 48
1.0
  6
BYLAYER
100
AcDbLine
 10
166.7615021389179333
 20
90.5629690000000096
 30
0.0
 11
180.7605021389179285
 21
90.5629690000000096
 31
0.0
  0
LINE
  5
49A
100
AcDbEntity
  8
0
 62
0
370
-1
 48
1.0
  6
BYLAYER
100
AcDbLine
 10
180.7605021389179285
 20
90.5629690000000096
 30
0.0
 11
180.7605021389179285
 21
91.5619690000000048
 31
0.0
  0
LINE
  5
49B
100
AcDbEntity
  8
0
 62
0
370
-1
 48
1.0
  6
BYLAYER
100
AcDbLine
 10
180.7605021389179285
 20
91.5619690000000048
 30
0.0
 11
181.5615021389179162
 21
91.5619690000000048
 31
0.0
  0
LINE
  5
49C
100
AcDbEntity
  8
0
 62
0
370
-1
 48
1.0
  6
BYLAYER
100
AcDbLine
 10
181.5615021389179162
 20
91.5619690000000048
 30
0.0
 11
181.5615021389179162
 21
94.6625690000000048
 31
0.0
  0
LINE
  5
49D
100
AcDbEntity
  8
0
 62
0
370
-1
 48
1.0
  6
BYLAYER
100
AcDbLine
 10
181.5615021389179162
 20
94.6625690000000048
 30
0.0
 11
180.7605021389179285
 21
94.6625690000000048
 31
0.0
  0
LINE
  5
49E
100
AcDbEntity
  8
0
 62
0
370
-1
 48
1.0
  6
BYLAYER
100
AcDbLine
 10
180.7605021389179285
 20
94.6625690000000048
 30
0.0
 11
180.7605021389179285
 21
100.4643690000000049
 31
0.0
  0
LINE
  5
49F
100
AcDbEntity
  8
0
 62
0
370
-1
 48
1.0
  6
BYLAYER
100
AcDbLine
 10
180.7605021389179285
 20
100.4643690000000049
 30
0.0
 11
181.5615021389179162
 21
100.4643690000000049
 31
0.0
  0
LINE
  5
4A0
100
AcDbEntity
  8
0
 62
0
370
-1
 48
1.0
  6
BYLAYER
100
AcDbLine
 10
181.5615021389179162
 20
100.4643690000000049
 30
0.0
 11
181.5615021389179162
 21
103.5633690000000087
 31
0.0
  0
LINE
  5
4A1
100
AcDbEntity
  8
0
 62
0
370
-1
 48
1.0
  6
BYLAYER
100
AcDbLine
 10
181.5615021389179162
 20
103.5633690000000087
 30
0.0
 11
180.7605021389179285
 21
103.5633690000000087
 31
0.0
  0
LINE
  5
4A2
100
AcDbEntity
  8
0
 62
0
370
-1
 48
1.0
  6
BYLAYER
100
AcDbLine
 10
180.7605021389179285
 20
103.5633690000000087
 30
0.0
 11
180.7605021389179285
 21
104.5643689999999992
 31
0.0
  0
LINE
  5
4A3
100
AcDbEntity
  8
0
 62
0
370
-1
 48
1.0
  6
BYLAYER
100
AcDbLine
 10
180.7605021389179285
 20
104.5643689999999992
 30
0.0
 11
166.7615021389179333
 21
104.5643689999999992
 31
0.0
  0
LINE
  5
4A4
100
AcDbEntity
  8
0
 62
0
370
-1
 48
1.0
  6
BYLAYER
100
AcDbLine
 10
185.8115021389179162
 20
104.5643689999999992
 30
0.0
 11
185.8115021389179162
 21
103.5633690000000087
 31
0.0
  0
LINE
  5
4A5
100
AcDbEntity
  8
0
 62
0
370
-1
 48
1.0
  6
BYLAYER
100
AcDbLine
 10
185.8115021389179162
 20
103.5633690000000087
 30
0.0
 11
185.0125021389179381
 21
103.5633690000000087
 31
0.0
  0
LINE
  5
4A6
100
AcDbEntity
  8
0
 62
0
370
-1
 48
1.0
  6
BYLAYER
100
AcDbLine
 10
185.0125021389179381
 20
103.5633690000000087
 30
0.0
 11
185.0125021389179381
 21
100.4643690000000049
 31
0.0
  0
LINE
  5
4A7
100
AcDbEntity
  8
0
 62
0
370
-1
 48
1.0
  6
BYLAYER
100
AcDbLine
 10
185.0125021389179381
 20
100.4643690000000049
 30
0.0
 11
185.8115021389179162
 21
100.4643690000000049
 31
0.0
  0
LINE
  5
4A8
100
AcDbEntity
  8
0
 62
0
370
-1
 48
1.0
  6
BYLAYER
100
AcDbLine
 10
185.8115021389179162
 20
100.4643690000000049
 30
0.0
 11
185.8115021389179162
 21
94.6625690000000048
 31
0.0
  0
LINE
  5
4A9
100
AcDbEntity
  8
0
 62
0
370
-1
 48
1.0
  6
BYLAYER
100
AcDbLine
 10
185.8115021389179162
 20
94.6625690000000048
 30
0.0
 11
185.0125021389179381
 21
94.6625690000000048
 31
0.0
  0
LINE
  5
4AA
100
AcDbEntity
  8
0
 62
0
370
-1
 48
1.0
  6
BYLAYER
100
AcDbLine
 10
185.0125021389179381
 20
94.6625690000000048
 30
0.0
 11
185.0125021389179381
 21
91.5619690000000048
 31
0.0
  0
LINE
  5
4AB
100
AcDbEntity
  8
0
 62
0
370
-1
 48
1.0
  6
BYLAYER
100
AcDbLine
 10
185.0125021389179381
 20
91.5619690000000048
 30
0.0
 11
185.8115021389179162
 21
91.5619690000000048
 31
0.0
  0
LINE
  5
4AC
100
AcDbEntity
  8
0
 62
0
370
-1
 48
1.0
  6
BYLAYER
100
AcDbLine
 10
185.8115021389179162
 20
91.5619690000000048
 30
0.0
 11
185.8115021389179162
 21
90.5629690000000096
 31
0.0
  0
LINE
  5
4AD
100
AcDbEntity
  8
0
 62
0
370
-1
 48
1.0
  6
BYLAYER
100
AcDbLine
 10
185.8115021389179162
 20
90.5629690000000096
 30
0.0
 11
199.8105021389179399
 21
90.5629690000000096
 31
0.0
  0
LINE
  5
4AE
100
AcDbEntity
  8
0
 62
0
370
-1
 48
1.0
  6
BYLAYER
100
AcDbLine
 10
199.8105021389179399
 20
90.5629690000000096
 30
0.0
 11
199.8105021389179399
 21
91.5619690000000048
 31
0.0
  0
LINE
  5
4AF
100
AcDbEntity
  8
0
 62
0
370
-1
 48
1.0
  6
BYLAYER
100
AcDbLine
 10
199.8105021389179399
 20
91.5619690000000048
 30
0.0
 11
200.6115021389179276
 21
91.5619690000000048
 31
0.0
  0
LINE
  5
4B0
100
AcDbEntity
  8
0
 62
0
370
-1
 48
1.0
  6
BYLAYER
100
AcDbLine
 10
200.6115021389179276
 20
91.5619690000000048
 30
0.0
 11
200.6115021389179276
 21
94.6625690000000048
 31
0.0
  0
LINE
  5
4B1
100
AcDbEntity
  8
0
 62
0
370
-1
 48
1.0
  6
BYLAYER
100
AcDbLine
 10
200.6115021389179276
 20
94.6625690000000048
 30
0.0
 11
199.8105021389179399
 21
94.6625690000000048
 31
0.0
  0
LINE
  5
4B2
100
AcDbEntity
  8
0
 62
0
370
-1
 48
1.0
  6
BYLAYER
100
AcDbLine
 10
199.8105021389179399
 20
94.6625690000000048
 30
0.0
 11
199.8105021389179399
 21
100.4643690000000049
 31
0.0
  0
LINE
  5
4B3
100
AcDbEntity
  8
0
 62
0
370
-1
 48
1.0
  6
BYLAYER
100
AcDbLine
 10
199.8105021389179399
 20
100.4643690000000049
 30
0.0
 11
200.6115021389179276
 21
100.4643690000000049
 31
0.0
  0
LINE
  5
4B4
100
AcDbEntity
  8
0
 62
0
370
-1
 48
1.0
  6
BYLAYER
100
AcDbLine
 10
200.6115021389179276
 20
100.4643690000000049
 30
0.0
 11
200.6115021389179276
 21
103.5633690000000087
 31
0.0
  0
LINE
  5
4B5
100
AcDbEntity
  8
0
 62
0
370
-1
 48
1.0
  6
BYLAYER
100
AcDbLine
 10
200.6115021389179276
 20
103.5633690000000087
 30
0.0
 11
199.8105021389179399
 21
103.5633690000000087
 31
0.0
  0
LINE
  5
4B6
100
AcDbEntity
  8
0
 62
0
370
-1
 48
1.0
  6
BYLAYER
100
AcDbLine
 10
199.8105021389179399
 20
103.5633690000000087
 30
0.0
 11
199.8105021389179399
 21
104.5643689999999992
 31
0.0
  0
LINE
  5
4B7
100
AcDbEntity
  8
0
 62
0
370
-1
 48
1.0
  6
BYLAYER
100
AcDbLine
 10
199.8105021389179399
 20
104.5643689999999992
 30
0.0
 11
185.8115021389179162
 21
104.5643689999999992
 31
0.0
  0
LINE
  5
4B8
100
AcDbEntity
  8
0
 62
0
370
-1
 48
1.0
  6
BYLAYER
100
AcDbLine
 10
204.8615021389179276
 20
104.5643689999999992
 30
0.0
 11
204.8615021389179276
 21
103.5633690000000087
 31
0.0
  0
LINE
  5
4B9
100
AcDbEntity
  8
0
 62
0
370
-1
 48
1.0
  6
BYLAYER
100
AcDbLine
 10
204.8615021389179276
 20
103.5633690000000087
 30
0.0
 11
204.062502138917921
 21
103.5633690000000087
 31
0.0
  0
LINE
  5
4BA
100
AcDbEntity
  8
0
 62
0
370
-1
 48
1.0
  6
BYLAYER
100
AcDbLine
 10
204.062502138917921
 20
103.5633690000000087
 30
0.0
 11
204.062502138917921
 21
100.4643690000000049
 31
0.0
  0
LINE
  5
4BB
100
AcDbEntity
  8
0
 62
0
370
-1
 48
1.0
  6
BYLAYER
100
AcDbLine
 10
204.062502138917921
 20
100.4643690000000049
 30
0.0
 11
204.8615021389179276
 21
100.4643690000000049
 31
0.0
  0
LINE
  5
4BC
100
AcDbEntity
  8
0
 62
0
370
-1
 48
1.0
  6
BYLAYER
100
AcDbLine
 10
204.8615021389179276
 20
100.4643690000000049
 30
0.0
 11
204.8615021389179276
 21
94.6625690000000048
 31
0.0
  0
LINE
  5
4BD
100
AcDbEntity
  8
0
 62
0
370
-1
 48
1.0
  6
BYLAYER
100
AcDbLine
 10
204.8615021389179276
 20
94.6625690000000048
 30
0.0
 11
204.062502138917921
 21
94.6625690000000048
 31
0.0
  0
LINE
  5
4BE
100
AcDbEntity
  8
0
 62
0
370
-1
 48
1.0
  6
BYLAYER
100
AcDbLine
 10
204.062502138917921
 20
94.6625690000000048
 30
0.0
 11
204.062502138917921
 21
91.5619690000000048
 31
0.0
  0
LINE
  5
4BF
100
AcDbEntity
  8
0
 62
0
370
-1
 48
1.0
  6
BYLAYER
100
AcDbLine
 10
204.062502138917921
 20
91.5619690000000048
 30
0.0
 11
204.8615021389179276
 21
91.5619690000000048
 31
0.0
  0
LINE
  5
4C0
100
AcDbEntity
  8
0
 62
0
370
-1
 48
1.0
  6
BYLAYER
100
AcDbLine
 10
204.8615021389179276
 20
91.5619690000000048
 30
0.0
 11
204.8615021389179276
 21
90.5629690000000096
 31
0.0
  0
LINE
  5
4C1
100
AcDbEntity
  8
0
 62
0
370
-1
 48
1.0
  6
BYLAYER
100
AcDbLine
 10
204.8615021389179276
 20
90.5629690000000096
 30
0.0
 11
218.8605021389179228
 21
90.5629690000000096
 31
0.0
  0
LINE
  5
4C2
100
AcDbEntity
  8
0
 62
0
370
-1
 48
1.0
  6
BYLAYER
100
AcDbLine
 10
218.8605021389179228
 20
90.5629690000000096
 30
0.0
 11
218.8605021389179228
 21
91.5619690000000048
 31
0.0
  0
LINE
  5
4C3
100
AcDbEntity
  8
0
 62
0
370
-1
 48
1.0
  6
BYLAYER
100
AcDbLine
 10
218.8605021389179228
 20
91.5619690000000048
 30
0.0
 11
219.661502138917939
 21
91.5619690000000048
 31
0.0
  0
LINE
  5
4C4
100
AcDbEntity
  8
0
 62
0
370
-1
 48
1.0
  6
BYLAYER
100
AcDbLine
 10
219.661502138917939
 20
91.5619690000000048
 30
0.0
 11
219.661502138917939
 21
94.6625690000000048
 31
0.0
  0
LINE
  5
4C5
100
AcDbEntity
  8
0
 62
0
370
-1
 48
1.0
  6
BYLAYER
100
AcDbLine
 10
219.661502138917939
 20
94.6625690000000048
 30
0.0
 11
218.8605021389179228
 21
94.6625690000000048
 31
0.0
  0
LINE
  5
4C6
100
AcDbEntity
  8
0
 62
0
370
-1
 48
1.0
  6
BYLAYER
100
AcDbLine
 10
218.8605021389179228
 20
94.6625690000000048
 30
0.0
 11
218.8605021389179228
 21
100.4643690000000049
 31
0.0
  0
LINE
  5
4C7
100
AcDbEntity
  8
0
 62
0
370
-1
 48
1.0
  6
BYLAYER
100
AcDbLine
 10
218.8605021389179228
 20
100.4643690000000049
 30
0.0
 11
219.661502138917939
 21
100.4643690000000049
 31
0.0
  0
LINE
  5
4C8
100
AcDbEntity
  8
0
 62
0
370
-1
 48
1.0
  6
BYLAYER
100
AcDbLine
 10
219.661502138917939
 20
100.4643690000000049
 30
0.0
 11
219.661502138917939
 21
103.5633690000000087
 31
0.0
  0
LINE
  5
4C9
100
AcDbEntity
  8
0
 62
0
370
-1
 48
1.0
  6
BYLAYER
100
AcDbLine
 10
219.661502138917939
 20
103.5633690000000087
 30
0.0
 11
218.8605021389179228
 21
103.5633690000000087
 31
0.0
  0
LINE
  5
4CA
100
AcDbEntity
  8
0
 62
0
370
-1
 48
1.0
  6
BYLAYER
100
AcDbLine
 10
218.8605021389179228
 20
103.5633690000000087
 30
0.0
 11
218.8605021389179228
 21
104.5643689999999992
 31
0.0
  0
LINE
  5
4CB
100
AcDbEntity
  8
0
 62
0
370
-1
 48
1.0
  6
BYLAYER
100
AcDbLine
 10
218.8605021389179228
 20
104.5643689999999992
 30
0.0
 11
204.8615021389179276
 21
104.5643689999999992
 31
0.0
  0
LINE
  5
4CC
100
AcDbEntity
  8
0
 62
0
370
-1
 48
1.0
  6
BYLAYER
100
AcDbLine
 10
223.911502138917939
 20
104.5643689999999992
 30
0.0
 11
223.911502138917939
 21
103.5633690000000087
 31
0.0
  0
LINE
  5
4CD
100
AcDbEntity
  8
0
 62
0
370
-1
 48
1.0
  6
BYLAYER
100
AcDbLine
 10
223.911502138917939
 20
103.5633690000000087
 30
0.0
 11
223.1125021389179324
 21
103.5633690000000087
 31
0.0
  0
LINE
  5
4CE
100
AcDbEntity
  8
0
 62
0
370
-1
 48
1.0
  6
BYLAYER
100
AcDbLine
 10
223.1125021389179324
 20
103.5633690000000087
 30
0.0
 11
223.1125021389179324
 21
100.4643690000000049
 31
0.0
  0
LINE
  5
4CF
100
AcDbEntity
  8
0
 62
0
370
-1
 48
1.0
  6
BYLAYER
100
AcDbLine
 10
223.1125021389179324
 20
100.4643690000000049
 30
0.0
 11
223.911502138917939
 21
100.4643690000000049
 31
0.0
  0
LINE
  5
4D0
100
AcDbEntity
  8
0
 62
0
370
-1
 48
1.0
  6
BYLAYER
100
AcDbLine
 10
223.911502138917939
 20
100.4643690000000049
 30
0.0
 11
223.911502138917939
 21
94.6625690000000048
 31
0.0
  0
LINE
  5
4D1
100
AcDbEntity
  8
0
 62
0
370
-1
 48
1.0
  6
BYLAYER
100
AcDbLine
 10
223.911502138917939
 20
94.6625690000000048
 30
0.0
 11
223.1125021389179324
 21
94.6625690000000048
 31
0.0
  0
LINE
  5
4D2
100
AcDbEntity
  8
0
 62
0
370
-1
 48
1.0
  6
BYLAYER
100
AcDbLine
 10
223.1125021389179324
 20
94.6625690000000048
 30
0.0
 11
223.1125021389179324
 21
91.5619690000000048
 31
0.0
  0
LINE
  5
4D3
100
AcDbEntity
  8
0
 62
0
370
-1
 48
1.0
  6
BYLAYER
100
AcDbLine
 10
223.1125021389179324
 20
91.5619690000000048
 30
0.0
 11
223.911502138917939
 21
91.5619690000000048
 31
0.0
  0
LINE
  5
4D4
100
AcDbEntity
  8
0
 62
0
370
-1
 48
1.0
  6
BYLAYER
100
AcDbLine
 10
223.911502138917939
 20
91.5619690000000048
 30
0.0
 11
223.911502138917939
 21
90.5629690000000096
 31
0.0
  0
LINE
  5
4D5
100
AcDbEntity
  8
0
 62
0
370
-1
 48
1.0
  6
BYLAYER
100
AcDbLine
 10
223.911502138917939
 20
90.5629690000000096
 30
0.0
 11
237.9105021389179342
 21
90.5629690000000096
 31
0.0
  0
LINE
  5
4D6
100
AcDbEntity
  8
0
 62
0
370
-1
 48
1.0
  6
BYLAYER
100
AcDbLine
 10
237.9105021389179342
 20
90.5629690000000096
 30
0.0
 11
237.9105021389179342
 21
91.5619690000000048
 31
0.0
  0
LINE
  5
4D7
100
AcDbEntity
  8
0
 62
0
370
-1
 48
1.0
  6
BYLAYER
100
AcDbLine
 10
237.9105021389179342
 20
91.5619690000000048
 30
0.0
 11
238.7115021389179219
 21
91.5619690000000048
 31
0.0
  0
LINE
  5
4D8
100
AcDbEntity
  8
0
 62
0
370
-1
 48
1.0
  6
BYLAYER
100
AcDbLine
 10
238.7115021389179219
 20
91.5619690000000048
 30
0.0
 11
238.7115021389179219
 21
94.6625690000000048
 31
0.0
  0
LINE
  5
4D9
100
AcDbEntity
  8
0
 62
0
370
-1
 48
1.0
  6
BYLAYER
100
AcDbLine
 10
238.7115021389179219
 20
94.6625690000000048
 30
0.0
 11
237.9105021389179342
 21
94.6625690000000048
 31
0.0
  0
LINE
  5
4DA
100
AcDbEntity
  8
0
 62
0
370
-1
 48
1.0
  6
BYLAYER
100
AcDbLine
 10
237.9105021389179342
 20
94.6625690000000048
 30
0.0
 11
237.9105021389179342
 21
100.4643690000000049
 31
0.0
  0
LINE
  5
4DB
100
AcDbEntity
  8
0
 62
0
370
-1
 48
1.0
  6
BYLAYER
100
AcDbLine
 10
237.9105021389179342
 20
100.4643690000000049
 30
0.0
 11
238.7115021389179219
 21
100.4643690000000049
 31
0.0
  0
LINE
  5
4DC
100
AcDbEntity
  8
0
 62
0
370
-1
 48
1.0
  6
BYLAYER
100
AcDbLine
 10
238.7115021389179219
 20
100.4643690000000049
 30
0.0
 11
238.7115021389179219
 21
103.5633690000000087
 31
0.0
  0
LINE
  5
4DD
100
AcDbEntity
  8
0
 62
0
370
-1
 48
1.0
  6
BYLAYER
100
AcDbLine
 10
238.7115021389179219
 20
103.5633690000000087
 30
0.0
 11
237.9105021389179342
 21
103.5633690000000087
 31
0.0
  0
LINE
  5
4DE
100
AcDbEntity
  8
0
 62
0
370
-1
 48
1.0
  6
BYLAYER
100
AcDbLine
 10
237.9105021389179342
 20
103.5633690000000087
 30
0.0
 11
237.9105021389179342
 21
104.5643689999999992
 31
0.0
  0
LINE
  5
4DF
100
AcDbEntity
  8
0
 62
0
370
-1
 48
1.0
  6
BYLAYER
100
AcDbLine
 10
237.9105021389179342
 20
104.5643689999999992
 30
0.0
 11
223.911502138917939
 21
104.5643689999999992
 31
0.0
  0
LINE
  5
4E0
100
AcDbEntity
  8
0
 62
0
370
-1
 48
1.0
  6
BYLAYER
100
AcDbLine
 10
242.9615021389179219
 20
104.5643689999999992
 30
0.0
 11
242.9615021389179219
 21
103.5633690000000087
 31
0.0
  0
LINE
  5
4E1
100
AcDbEntity
  8
0
 62
0
370
-1
 48
1.0
  6
BYLAYER
100
AcDbLine
 10
242.9615021389179219
 20
103.5633690000000087
 30
0.0
 11
242.1625021389179153
 21
103.5633690000000087
 31
0.0
  0
LINE
  5
4E2
100
AcDbEntity
  8
0
 62
0
370
-1
 48
1.0
  6
BYLAYER
100
AcDbLine
 10
242.1625021389179153
 20
103.5633690000000087
 30
0.0
 11
242.1625021389179153
 21
100.4643690000000049
 31
0.0
  0
LINE
  5
4E3
100
AcDbEntity
  8
0
 62
0
370
-1
 48
1.0
  6
BYLAYER
100
AcDbLine
 10
242.1625021389179153
 20
100.4643690000000049
 30
0.0
 11
242.9615021389179219
 21
100.4643690000000049
 31
0.0
  0
LINE
  5
4E4
100
AcDbEntity
  8
0
 62
0
370
-1
 48
1.0
  6
BYLAYER
100
AcDbLine
 10
242.9615021389179219
 20
100.4643690000000049
 30
0.0
 11
242.9615021389179219
 21
94.6625690000000048
 31
0.0
  0
LINE
  5
4E5
100
AcDbEntity
  8
0
 62
0
370
-1
 48
1.0
  6
BYLAYER
100
AcDbLine
 10
242.9615021389179219
 20
94.6625690000000048
 30
0.0
 11
242.1625021389179153
 21
94.6625690000000048
 31
0.0
  0
LINE
  5
4E6
100
AcDbEntity
  8
0
 62
0
370
-1
 48
1.0
  6
BYLAYER
100
AcDbLine
 10
242.1625021389179153
 20
94.6625690000000048
 30
0.0
 11
242.1625021389179153
 21
91.5619690000000048
 31
0.0
  0
LINE
  5
4E7
100
AcDbEntity
  8
0
 62
0
370
-1
 48
1.0
  6
BYLAYER
100
AcDbLine
 10
242.1625021389179153
 20
91.5619690000000048
 30
0.0
 11
242.9615021389179219
 21
91.5619690000000048
 31
0.0
  0
LINE
  5
4E8
100
AcDbEntity
  8
0
 62
0
370
-1
 48
1.0
  6
BYLAYER
100
AcDbLine
 10
242.9615021389179219
 20
91.5619690000000048
 30
0.0
 11
242.9615021389179219
 21
90.5629690000000096
 31
0.0
  0
LINE
  5
4E9
100
AcDbEntity
  8
0
 62
0
370
-1
 48
1.0
  6
BYLAYER
100
AcDbLine
 10
242.9615021389179219
 20
90.5629690000000096
 30
0.0
 11
256.9605021389179456
 21
90.5629690000000096
 31
0.0
  0
LINE
  5
4EA
100
AcDbEntity
  8
0
 62
0
370
-1
 48
1.0
  6
BYLAYER
100
AcDbLine
 10
256.9605021389179456
 20
90.5629690000000096
 30
0.0
 11
256.9605021389179456
 21
91.5619690000000048
 31
0.0
  0
LINE
  5
4EB
100
AcDbEntity
  8
0
 62
0
370
-1
 48
1.0
  6
BYLAYER
100
AcDbLine
 10
256.9605021389179456
 20
91.5619690000000048
 30
0.0
 11
257.7615021389179333
 21
91.5619690000000048
 31
0.0
  0
LINE
  5
4EC
100
AcDbEntity
  8
0
 62
0
370
-1
 48
1.0
  6
BYLAYER
100
AcDbLine
 10
257.7615021389179333
 20
91.5619690000000048
 30
0.0
 11
257.7615021389179333
 21
94.6625690000000048
 31
0.0
  0
LINE
  5
4ED
100
AcDbEntity
  8
0
 62
0
370
-1
 48
1.0
  6
BYLAYER
100
AcDbLine
 10
257.7615021389179333
 20
94.6625690000000048
 30
0.0
 11
256.9605021389179456
 21
94.6625690000000048
 31
0.0
  0
LINE
  5
4EE
100
AcDbEntity
  8
0
 62
0
370
-1
 48
1.0
  6
BYLAYER
100
AcDbLine
 10
256.9605021389179456
 20
94.6625690000000048
 30
0.0
 11
256.9605021389179456
 21
100.4643690000000049
 31
0.0
  0
LINE
  5
4EF
100
AcDbEntity
  8
0
 62
0
370
-1
 48
1.0
  6
BYLAYER
100
AcDbLine
 10
256.9605021389179456
 20
100.4643690000000049
 30
0.0
 11
257.7615021389179333
 21
100.4643690000000049
 31
0.0
  0
LINE
  5
4F0
100
AcDbEntity
  8
0
 62
0
370
-1
 48
1.0
  6
BYLAYER
100
AcDbLine
 10
257.7615021389179333
 20
100.4643690000000049
 30
0.0
 11
257.7615021389179333
 21
103.5633690000000087
 31
0.0
  0
LINE
  5
4F1
100
AcDbEntity
  8
0
 62
0
370
-1
 48
1.0
  6
BYLAYER
100
AcDbLine
 10
257.7615021389179333
 20
103.5633690000000087
 30
0.0
 11
256.9605021389179456
 21
103.5633690000000087
 31
0.0
  0
LINE
  5
4F2
100
AcDbEntity
  8
0
 62
0
370
-1
 48
1.0
  6
BYLAYER
100
AcDbLine
 10
256.9605021389179456
 20
103.5633690000000087
 30
0.0
 11
256.9605021389179456
 21
104.5643689999999992
 31
0.0
  0
LINE
  5
4F3
100
AcDbEntity
  8
0
 62
0
370
-1
 48
1.0
  6
BYLAYER
100
AcDbLine
 10
256.9605021389179456
 20
104.5643689999999992
 30
0.0
 11
242.9615021389179219
 21
104.5643689999999992
 31
0.0
  0
LINE
  5
4F4
100
AcDbEntity
  8
0
 62
0
370
-1
 48
1.0
  6
BYLAYER
100
AcDbLine
 10
262.0115021389179333
 20
104.5643689999999992
 30
0.0
 11
262.0115021389179333
 21
103.5633690000000087
 31
0.0
  0
LINE
  5
4F5
100
AcDbEntity
  8
0
 62
0
370
-1
 48
1.0
  6
BYLAYER
100
AcDbLine
 10
262.0115021389179333
 20
103.5633690000000087
 30
0.0
 11
261.2125021389179551
 21
103.5633690000000087
 31
0.0
  0
LINE
  5
4F6
100
AcDbEntity
  8
0
 62
0
370
-1
 48
1.0
  6
BYLAYER
100
AcDbLine
 10
261.2125021389179551
 20
103.5633690000000087
 30
0.0
 11
261.2125021389179551
 21
100.4643690000000049
 31
0.0
  0
LINE
  5
4F7
100
AcDbEntity
  8
0
 62
0
370
-1
 48
1.0
  6
BYLAYER
100
AcDbLine
 10
261.2125021389179551
 20
100.4643690000000049
 30
0.0
 11
262.0115021389179333
 21
100.4643690000000049
 31
0.0
  0
LINE
  5
4F8
100
AcDbEntity
  8
0
 62
0
370
-1
 48
1.0
  6
BYLAYER
100
AcDbLine
 10
262.0115021389179333
 20
100.4643690000000049
 30
0.0
 11
262.0115021389179333
 21
94.6625690000000048
 31
0.0
  0
LINE
  5
4F9
100
AcDbEntity
  8
0
 62
0
370
-1
 48
1.0
  6
BYLAYER
100
AcDbLine
 10
262.0115021389179333
 20
94.6625690000000048
 30
0.0
 11
261.2125021389179551
 21
94.6625690000000048
 31
0.0
  0
LINE
  5
4FA
100
AcDbEntity
  8
0
 62
0
370
-1
 48
1.0
  6
BYLAYER
100
AcDbLine
 10
261.2125021389179551
 20
94.6625690000000048
 30
0.0
 11
261.2125021389179551
 21
91.5619690000000048
 31
0.0
  0
LINE
  5
4FB
100
AcDbEntity
  8
0
 62
0
370
-1
 48
1.0
  6
BYLAYER
100
AcDbLine
 10
261.2125021389179551
 20
91.5619690000000048
 30
0.0
 11
262.0115021389179333
 21
91.5619690000000048
 31
0.0
  0
LINE
  5
4FC
100
AcDbEntity
  8
0
 62
0
370
-1
 48
1.0
  6
BYLAYER
100
AcDbLine
 10
262.0115021389179333
 20
91.5619690000000048
 30
0.0
 11
262.0115021389179333
 21
90.5629690000000096
 31
0.0
  0
LINE
  5
4FD
100
AcDbEntity
  8
0
 62
0
370
-1
 48
1.0
  6
BYLAYER
100
AcDbLine
 10
262.0115021389179333
 20
90.5629690000000096
 30
0.0
 11
276.0105021389179001
 21
90.5629690000000096
 31
0.0
  0
LINE
  5
4FE
100
AcDbEntity
  8
0
 62
0
370
-1
 48
1.0
  6
BYLAYER
100
AcDbLine
 10
276.0105021389179001
 20
90.5629690000000096
 30
0.0
 11
276.0105021389179001
 21
91.5619690000000048
 31
0.0
  0
LINE
  5
4FF
100
AcDbEntity
  8
0
 62
0
370
-1
 48
1.0
  6
BYLAYER
100
AcDbLine
 10
276.0105021389179001
 20
91.5619690000000048
 30
0.0
 11
276.8115021389179446
 21
91.5619690000000048
 31
0.0
  0
LINE
  5
500
100
AcDbEntity
  8
0
 62
0
370
-1
 48
1.0
  6
BYLAYER
100
AcDbLine
 10
276.8115021389179446
 20
91.5619690000000048
 30
0.0
 11
276.8115021389179446
 21
94.6625690000000048
 31
0.0
  0
LINE
  5
501
100
AcDbEntity
  8
0
 62
0
370
-1
 48
1.0
  6
BYLAYER
100
AcDbLine
 10
276.8115021389179446
 20
94.6625690000000048
 30
0.0
 11
276.0105021389179001
 21
94.6625690000000048
 31
0.0
  0
LINE
  5
502
100
AcDbEntity
  8
0
 62
0
370
-1
 48
1.0
  6
BYLAYER
100
AcDbLine
 10
276.0105021389179001
 20
94.6625690000000048
 30
0.0
 11
276.0105021389179001
 21
100.4643690000000049
 31
0.0
  0
LINE
  5
503
100
AcDbEntity
  8
0
 62
0
370
-1
 48
1.0
  6
BYLAYER
100
AcDbLine
 10
276.0105021389179001
 20
100.4643690000000049
 30
0.0
 11
276.8115021389179446
 21
100.4643690000000049
 31
0.0
  0
LINE
  5
504
100
AcDbEntity
  8
0
 62
0
370
-1
 48
1.0
  6
BYLAYER
100
AcDbLine
 10
276.8115021389179446
 20
100.4643690000000049
 30
0.0
 11
276.8115021389179446
 21
103.5633690000000087
 31
0.0
  0
LINE
  5
505
100
AcDbEntity
  8
0
 62
0
370
-1
 48
1.0
  6
BYLAYER
100
AcDbLine
 10
276.8115021389179446
 20
103.5633690000000087
 30
0.0
 11
276.0105021389179001
 21
103.5633690000000087
 31
0.0
  0
LINE
  5
506
100
AcDbEntity
  8
0
 62
0
370
-1
 48
1.0
  6
BYLAYER
100
AcDbLine
 10
276.0105021389179001
 20
103.5633690000000087
 30
0.0
 11
276.0105021389179001
 21
104.5643689999999992
 31
0.0
  0
LINE
  5
507
100
AcDbEntity
  8
0
 62
0
370
-1
 48
1.0
  6
BYLAYER
100
AcDbLine
 10
276.0105021389179001
 20
104.5643689999999992
 30
0.0
 11
262.0115021389179333
 21
104.5643689999999992
 31
0.0
  0
LINE
  5
508
100
AcDbEntity
  8
0
 62
0
370
-1
 48
1.0
  6
BYLAYER
100
AcDbLine
 10
281.0615021389179446
 20
104.5643689999999992
 30
0.0
 11
281.0615021389179446
 21
103.5633690000000087
 31
0.0
  0
LINE
  5
509
100
AcDbEntity
  8
0
 62
0
370
-1
 48
1.0
  6
BYLAYER
100
AcDbLine
 10
281.0615021389179446
 20
103.5633690000000087
 30
0.0
 11
280.2625021389179096
 21
103.5633690000000087
 31
0.0
  0
LINE
  5
50A
100
AcDbEntity
  8
0
 62
0
370
-1
 48
1.0
  6
BYLAYER
100
AcDbLine
 10
280.2625021389179096
 20
103.5633690000000087
 30
0.0
 11
280.2625021389179096
 21
100.4643690000000049
 31
0.0
  0
LINE
  5
50B
100
AcDbEntity
  8
0
 62
0
370
-1
 48
1.0
  6
BYLAYER
100
AcDbLine
 10
280.2625021389179096
 20
100.4643690000000049
 30
0.0
 11
281.0615021389179446
 21
100.4643690000000049
 31
0.0
  0
LINE
  5
50C
100
AcDbEntity
  8
0
 62
0
370
-1
 48
1.0
  6
BYLAYER
100
AcDbLine
 10
281.0615021389179446
 20
100.4643690000000049
 30
0.0
 11
281.0615021389179446
 21
94.6625690000000048
 31
0.0
  0
LINE
  5
50D
100
AcDbEntity
  8
0
 62
0
370
-1
 48
1.0
  6
BYLAYER
100
AcDbLine
 10
281.0615021389179446
 20
94.6625690000000048
 30
0.0
 11
280.2625021389179096
 21
94.6625690000000048
 31
0.0
  0
LINE
  5
50E
100
AcDbEntity
  8
0
 62
0
370
-1
 48
1.0
  6
BYLAYER
100
AcDbLine
 10
280.2625021389179096
 20
94.6625690000000048
 30
0.0
 11
280.2625021389179096
 21
91.5619690000000048
 31
0.0
  0
LINE
  5
50F
100
AcDbEntity
  8
0
 62
0
370
-1
 48
1.0
  6
BYLAYER
100
AcDbLine
 10
280.2625021389179096
 20
91.5619690000000048
 30
0.0
 11
281.0615021389179446
 21
91.5619690000000048
 31
0.0
  0
LINE
  5
510
100
AcDbEntity
  8
0
 62
0
370
-1
 48
1.0
  6
BYLAYER
100
AcDbLine
 10
281.0615021389179446
 20
91.5619690000000048
 30
0.0
 11
281.0615021389179446
 21
90.5629690000000096
 31
0.0
  0
LINE
  5
511
100
AcDbEntity
  8
0
 62
0
370
-1
 48
1.0
  6
BYLAYER
100
AcDbLine
 10
281.0615021389179446
 20
90.5629690000000096
 30
0.0
 11
295.0605021389179115
 21
90.5629690000000096
 31
0.0
  0
LINE
  5
512
100
AcDbEntity
  8
0
 62
0
370
-1
 48
1.0
  6
BYLAYER
100
AcDbLine
 10
295.0605021389179115
 20
90.5629690000000096
 30
0.0
 11
295.0605021389179115
 21
91.5619690000000048
 31
0.0
  0
LINE
  5
513
100
AcDbEntity
  8
0
 62
0
370
-1
 48
1.0
  6
BYLAYER
100
AcDbLine
 10
295.0605021389179115
 20
91.5619690000000048
 30
0.0
 11
295.861502138917956
 21
91.5619690000000048
 31
0.0
  0
LINE
  5
514
100
AcDbEntity
  8
0
 62
0
370
-1
 48
1.0
  6
BYLAYER
100
AcDbLine
 10
295.861502138917956
 20
91.5619690000000048
 30
0.0
 11
295.861502138917956
 21
94.6625690000000048
 31
0.0
  0
LINE
  5
515
100
AcDbEntity
  8
0
 62
0
370
-1
 48
1.0
  6
BYLAYER
100
AcDbLine
 10
295.861502138917956
 20
94.6625690000000048
 30
0.0
 11
295.0605021389179115
 21
94.6625690000000048
 31
0.0
  0
LINE
  5
516
100
AcDbEntity
  8
0
 62
0
370
-1
 48
1.0
  6
BYLAYER
100
AcDbLine
 10
295.0605021389179115
 20
94.6625690000000048
 30
0.0
 11
295.0605021389179115
 21
100.4643690000000049
 31
0.0
  0
LINE
  5
517
100
AcDbEntity
  8
0
 62
0
370
-1
 48
1.0
  6
BYLAYER
100
AcDbLine
 10
295.0605021389179115
 20
100.4643690000000049
 30
0.0
 11
295.861502138917956
 21
100.4643690000000049
 31
0.0
  0
LINE
  5
518
100
AcDbEntity
  8
0
 62
0
370
-1
 48
1.0
  6
BYLAYER
100
AcDbLine
 10
295.861502138917956
 20
100.4643690000000049
 30
0.0
 11
295.861502138917956
 21
103.5633690000000087
 31
0.0
  0
LINE
  5
519
100
AcDbEntity
  8
0
 62
0
370
-1
 48
1.0
  6
BYLAYER
100
AcDbLine
 10
295.861502138917956
 20
103.5633690000000087
 30
0.0
 11
295.0605021389179115
 21
103.5633690000000087
 31
0.0
  0
LINE
  5
51A
100
AcDbEntity
  8
0
 62
0
370
-1
 48
1.0
  6
BYLAYER
100
AcDbLine
 10
295.0605021389179115
 20
103.5633690000000087
 30
0.0
 11
295.0605021389179115
 21
104.5643689999999992
 31
0.0
  0
LINE
  5
51B
100
AcDbEntity
  8
0
 62
0
370
-1
 48
1.0
  6
BYLAYER
100
AcDbLine
 10
295.0605021389179115
 20
104.5643689999999992
 30
0.0
 11
281.0615021389179446
 21
104.5643689999999992
 31
0.0
  0
LINE
  5
51C
100
AcDbEntity
  8
0
 62
256
370
-1
 48
1.0
  6
BYLAYER
100
AcDbLine
 10
42.9361021389179385
 20
28.3638690000000153
 30
0.0
 11
40.5548021389179851
 21
28.3638690000000224
 31
0.0
  0
LINE
  5
51D
100
AcDbEntity
  8
0
 62
256
370
-1
 48
1.0
  6
BYLAYER
100
AcDbLine
 10
40.5548021389179851
 20
28.3638690000000224
 30
0.0
 11
40.554802138917978
 21
27.3634690000000056
 31
0.0
  0
LINE
  5
51E
100
AcDbEntity
  8
0
 62
256
370
-1
 48
1.0
  6
BYLAYER
100
AcDbLine
 10
40.554802138917978
 20
27.3634690000000056
 30
0.0
 11
39.7544021389179676
 21
27.3634690000000056
 31
0.0
  0
LINE
  5
51F
100
AcDbEntity
  8
0
 62
256
370
-1
 48
1.0
  6
BYLAYER
100
AcDbLine
 10
39.7544021389179676
 20
27.3634690000000056
 30
0.0
 11
39.7544021389179676
 21
24.2642690000000094
 31
0.0
  0
LINE
  5
520
100
AcDbEntity
  8
0
 62
256
370
-1
 48
1.0
  6
BYLAYER
100
AcDbLine
 10
39.7544021389179676
 20
24.2642690000000094
 30
0.0
 11
40.5548021389179922
 21
24.2642690000000165
 31
0.0
  0
LINE
  5
521
100
AcDbEntity
  8
0
 62
256
370
-1
 48
1.0
  6
BYLAYER
100
AcDbLine
 10
40.5548021389179922
 20
24.2642690000000165
 30
0.0
 11
40.5548021389179922
 21
18.4626690000000373
 31
0.0
  0
LINE
  5
522
100
AcDbEntity
  8
0
 62
256
370
-1
 48
1.0
  6
BYLAYER
100
AcDbLine
 10
40.5548021389179922
 20
18.4626690000000373
 30
0.0
 11
39.7544021389179605
 21
18.4626690000000337
 31
0.0
  0
LINE
  5
523
100
AcDbEntity
  8
0
 62
256
370
-1
 48
1.0
  6
BYLAYER
100
AcDbLine
 10
39.7544021389179605
 20
18.4626690000000337
 30
0.0
 11
39.7544021389179605
 21
15.3621690000000264
 31
0.0
  0
LINE
  5
524
100
AcDbEntity
  8
0
 62
256
370
-1
 48
1.0
  6
BYLAYER
100
AcDbLine
 10
39.7544021389179605
 20
15.3621690000000264
 30
0.0
 11
40.5548021389179922
 21
15.3621690000000228
 31
0.0
  0
LINE
  5
525
100
AcDbEntity
  8
0
 62
256
370
-1
 48
1.0
  6
BYLAYER
100
AcDbLine
 10
40.5548021389179922
 20
15.3621690000000228
 30
0.0
 11
40.5548021389179851
 21
14.3630690000000243
 31
0.0
  0
LINE
  5
526
100
AcDbEntity
  8
0
 62
256
370
-1
 48
1.0
  6
BYLAYER
100
AcDbLine
 10
40.5548021389179851
 20
14.3630690000000243
 30
0.0
 11
42.9361021389179456
 21
14.3630690000000243
 31
0.0
  0
LINE
  5
527
100
AcDbEntity
  8
0
 62
256
370
-1
 48
1.0
  6
BYLAYER
100
AcDbLine
 10
66.7486021389179598
 20
28.3638690000000224
 30
0.0
 11
64.367302138917978
 21
28.3638690000000224
 31
0.0
  0
LINE
  5
528
100
AcDbEntity
  8
0
 62
256
370
-1
 48
1.0
  6
BYLAYER
100
AcDbLine
 10
64.367302138917978
 20
28.3638690000000224
 30
0.0
 11
64.367302138917978
 21
27.3634690000000091
 31
0.0
  0
LINE
  5
529
100
AcDbEntity
  8
0
 62
256
370
-1
 48
1.0
  6
BYLAYER
100
AcDbLine
 10
64.367302138917978
 20
27.3634690000000091
 30
0.0
 11
63.5668021389179856
 21
27.3634690000000091
 31
0.0
  0
LINE
  5
52A
100
AcDbEntity
  8
0
 62
256
370
-1
 48
1.0
  6
BYLAYER
100
AcDbLine
 10
63.5668021389179856
 20
27.3634690000000091
 30
0.0
 11
63.5668021389179856
 21
24.264269000000013
 31
0.0
  0
LINE
  5
52B
100
AcDbEntity
  8
0
 62
256
370
-1
 48
1.0
  6
BYLAYER
100
AcDbLine
 10
63.5668021389179856
 20
24.264269000000013
 30
0.0
 11
64.3673021389180064
 21
24.264269000000013
 31
0.0
  0
LINE
  5
52C
100
AcDbEntity
  8
0
 62
256
370
-1
 48
1.0
  6
BYLAYER
100
AcDbLine
 10
64.3673021389180064
 20
24.264269000000013
 30
0.0
 11
64.3673021389180064
 21
18.4626690000000337
 31
0.0
  0
LINE
  5
52D
100
AcDbEntity
  8
0
 62
256
370
-1
 48
1.0
  6
BYLAYER
100
AcDbLine
 10
64.3673021389180064
 20
18.4626690000000337
 30
0.0
 11
63.5668021389179856
 21
18.4626690000000337
 31
0.0
  0
LINE
  5
52E
100
AcDbEntity
  8
0
 62
256
370
-1
 48
1.0
  6
BYLAYER
100
AcDbLine
 10
63.5668021389179856
 20
18.4626690000000337
 30
0.0
 11
63.5668021389179856
 21
15.3621690000000228
 31
0.0
  0
LINE
  5
52F
100
AcDbEntity
  8
0
 62
256
370
-1
 48
1.0
  6
BYLAYER
100
AcDbLine
 10
63.5668021389179856
 20
15.3621690000000228
 30
0.0
 11
64.367302138917978
 21
15.3621690000000228
 31
0.0
  0
LINE
  5
530
100
AcDbEntity
  8
0
 62
256
370
-1
 48
1.0
  6
BYLAYER
100
AcDbLine
 10
64.367302138917978
 20
15.3621690000000228
 30
0.0
 11
64.367302138917978
 21
14.3630690000000278
 31
0.0
  0
LINE
  5
531
100
AcDbEntity
  8
0
 62
256
370
-1
 48
1.0
  6
BYLAYER
100
AcDbLine
 10
64.367302138917978
 20
14.3630690000000278
 30
0.0
 11
66.7486021389179314
 21
14.3630690000000278
 31
0.0
  0
LINE
  5
532
100
AcDbEntity
  8
0
 62
256
370
-1
 48
1.0
  6
BYLAYER
100
AcDbLine
 10
94.4543021389179671
 20
14.5931690000000067
 30
0.0
 11
94.4543021389179671
 21
13.3928690000000152
 31
0.0
  0
LINE
  5
533
100
AcDbEntity
  8
0
 62
256
370
-1
 48
1.0
  6
BYLAYER
100
AcDbLine
 10
94.4543021389179671
 20
13.3928690000000152
 30
0.0
 11
91.1537021389180211
 21
13.3928690000000152
 31
0.0
  0
LINE
  5
534
100
AcDbEntity
  8
0
 62
256
370
-1
 48
1.0
  6
BYLAYER
100
AcDbLine
 10
91.1537021389180211
 20
13.3928690000000152
 30
0.0
 11
91.1537021389180211
 21
14.5931690000000458
 31
0.0
  0
LINE
  5
535
100
AcDbEntity
  8
0
 62
256
370
-1
 48
1.0
  6
BYLAYER
100
AcDbLine
 10
91.1537021389180211
 20
14.5931690000000458
 30
0.0
 11
89.4794021389179761
 21
14.5931690000000458
 31
0.0
  0
LINE
  5
536
100
AcDbEntity
  8
0
 62
256
370
-1
 48
1.0
  6
BYLAYER
100
AcDbLine
 10
89.4794021389179761
 20
14.5931690000000458
 30
0.0
 11
89.4794021389179761
 21
20.8618690000000093
 31
0.0
  0
LINE
  5
537
100
AcDbEntity
  8
0
 62
256
370
-1
 48
1.0
  6
BYLAYER
100
AcDbLine
 10
89.4794021389179761
 20
20.8618690000000093
 30
0.0
 11
88.6042021389179695
 21
20.8618690000000164
 31
0.0
  0
LINE
  5
538
100
AcDbEntity
  8
0
 62
256
370
-1
 48
1.0
  6
BYLAYER
100
AcDbLine
 10
88.6042021389179695
 20
20.8618690000000164
 30
0.0
 11
88.6042021389179695
 21
23.6620690000000309
 31
0.0
  0
LINE
  5
539
100
AcDbEntity
  8
0
 62
256
370
-1
 48
1.0
  6
BYLAYER
100
AcDbLine
 10
88.6042021389179695
 20
23.6620690000000309
 30
0.0
 11
89.4794021389179761
 21
23.6620690000000273
 31
0.0
  0
LINE
  5
53A
100
AcDbEntity
  8
0
 62
256
370
-1
 48
1.0
  6
BYLAYER
100
AcDbLine
 10
89.4794021389179761
 20
23.6620690000000273
 30
0.0
 11
89.4794021389179761
 21
26.8935690000000136
 31
0.0
  0
LINE
  5
53B
100
AcDbEntity
  8
0
 62
256
370
-1
 48
1.0
  6
BYLAYER
100
AcDbLine
 10
89.4794021389179761
 20
26.8935690000000136
 30
0.0
 11
94.236302138917921
 21
26.8935690000000029
 31
0.0
  0
LINE
  5
53C
100
AcDbEntity
  8
0
 62
256
370
-1
 48
1.0
  6
BYLAYER
100
AcDbLine
 10
94.4543021389179671
 20
14.5931690000000458
 30
0.0
 11
95.9105021389179342
 21
14.5931690000000494
 31
0.0
  0
LINE
  5
53D
100
AcDbEntity
  8
0
 62
256
370
-1
 48
1.0
  6
BYLAYER
100
AcDbLine
 10
147.7115021389178935
 20
28.3638690000000082
 30
0.0
 11
135.8045021389179965
 21
28.3638690000000224
 31
0.0
  0
LINE
  5
53E
100
AcDbEntity
  8
0
 62
256
370
-1
 48
1.0
  6
BYLAYER
100
AcDbLine
 10
135.8045021389179965
 20
28.3638690000000224
 30
0.0
 11
135.8045021389179965
 21
27.3634690000000056
 31
0.0
  0
LINE
  5
53F
100
AcDbEntity
  8
0
 62
256
370
-1
 48
1.0
  6
BYLAYER
100
AcDbLine
 10
135.8045021389179965
 20
27.3634690000000056
 30
0.0
 11
135.004502138918042
 21
27.3634690000000091
 31
0.0
  0
LINE
  5
540
100
AcDbEntity
  8
0
 62
256
370
-1
 48
1.0
  6
BYLAYER
100
AcDbLine
 10
135.004502138918042
 20
27.3634690000000091
 30
0.0
 11
135.004502138918042
 21
24.264269000000013
 31
0.0
  0
LINE
  5
541
100
AcDbEntity
  8
0
 62
256
370
-1
 48
1.0
  6
BYLAYER
100
AcDbLine
 10
135.004502138918042
 20
24.264269000000013
 30
0.0
 11
135.8045021389179965
 21
24.264269000000013
 31
0.0
  0
LINE
  5
542
100
AcDbEntity
  8
0
 62
256
370
-1
 48
1.0
  6
BYLAYER
100
AcDbLine
 10
135.8045021389179965
 20
24.264269000000013
 30
0.0
 11
135.8045021389179965
 21
23.6620690000000096
 31
0.0
  0
LINE
  5
543
100
AcDbEntity
  8
0
 62
256
370
-1
 48
1.0
  6
BYLAYER
100
AcDbLine
 10
135.8045021389179965
 20
19.0635690000000295
 30
0.0
 11
135.8045021389179965
 21
18.4626690000000337
 31
0.0
  0
LINE
  5
544
100
AcDbEntity
  8
0
 62
256
370
-1
 48
1.0
  6
BYLAYER
100
AcDbLine
 10
135.8045021389179965
 20
18.4626690000000337
 30
0.0
 11
135.004502138918042
 21
18.4626690000000337
 31
0.0
  0
LINE
  5
545
100
AcDbEntity
  8
0
 62
256
370
-1
 48
1.0
  6
BYLAYER
100
AcDbLine
 10
135.004502138918042
 20
18.4626690000000337
 30
0.0
 11
135.004502138918042
 21
15.3621690000000264
 31
0.0
  0
LINE
  5
546
100
AcDbEntity
  8
0
 62
256
370
-1
 48
1.0
  6
BYLAYER
100
AcDbLine
 10
135.004502138918042
 20
15.3621690000000264
 30
0.0
 11
135.8045021389179965
 21
15.3621690000000228
 31
0.0
  0
LINE
  5
547
100
AcDbEntity
  8
0
 62
256
370
-1
 48
1.0
  6
BYLAYER
100
AcDbLine
 10
135.8045021389179965
 20
15.3621690000000228
 30
0.0
 11
135.8045021389179681
 21
14.3630690000000243
 31
0.0
  0
LINE
  5
548
100
AcDbEntity
  8
0
 62
256
370
-1
 48
1.0
  6
BYLAYER
100
AcDbLine
 10
135.8045021389179681
 20
14.3630690000000243
 30
0.0
 11
147.7115021389179219
 21
14.3630690000000243
 31
0.0
  0
LINE
  5
549
100
AcDbEntity
  8
0
 62
256
370
-1
 48
1.0
  6
BYLAYER
100
AcDbLine
 10
135.8045021389179965
 20
19.0635690000000295
 30
0.0
 11
100.8865021389179333
 21
19.0635690000000295
 31
0.0
  0
LINE
  5
54A
100
AcDbEntity
  8
0
 62
256
370
-1
 48
1.0
  6
BYLAYER
100
AcDbLine
 10
135.8045021389179965
 20
23.6620690000000096
 30
0.0
 11
100.8865021389179333
 21
23.662069000000006
 31
0.0
  0
LINE
  5
54B
100
AcDbEntity
  8
0
 62
256
370
-1
 48
1.0
  6
BYLAYER
100
AcDbLine
 10
189.479502138917951
 20
23.662069000000006
 30
0.0
 11
189.479502138917951
 21
26.8935690000000136
 31
0.0
  0
LINE
  5
54C
100
AcDbEntity
  8
0
 62
256
370
-1
 48
1.0
  6
BYLAYER
100
AcDbLine
 10
189.479502138917951
 20
26.8935690000000136
 30
0.0
 11
196.1295021389180704
 21
26.8935690000000136
 31
0.0
  0
LINE
  5
54D
100
AcDbEntity
  8
0
 62
256
370
-1
 48
1.0
  6
BYLAYER
100
AcDbLine
 10
196.1295021389180704
 20
26.8935690000000136
 30
0.0
 11
196.1295021389180704
 21
23.662069000000006
 31
0.0
  0
LINE
  5
54E
100
AcDbEntity
  8
0
 62
256
370
-1
 48
1.0
  6
BYLAYER
100
AcDbLine
 10
196.1295021389180135
 20
19.0635690000000011
 30
0.0
 11
196.129502138918042
 21
14.5931690000000422
 31
0.0
  0
LINE
  5
54F
100
AcDbEntity
  8
0
 62
256
370
-1
 48
1.0
  6
BYLAYER
100
AcDbLine
 10
196.129502138918042
 20
14.5931690000000422
 30
0.0
 11
194.4545021389179738
 21
14.5931690000000458
 31
0.0
  0
LINE
  5
550
100
AcDbEntity
  8
0
 62
256
370
-1
 48
1.0
  6
BYLAYER
100
AcDbLine
 10
194.4545021389179738
 20
14.5931690000000458
 30
0.0
 11
194.4545021389179738
 21
13.3928690000000188
 31
0.0
  0
LINE
  5
551
100
AcDbEntity
  8
0
 62
256
370
-1
 48
1.0
  6
BYLAYER
100
AcDbLine
 10
194.4545021389179738
 20
13.3928690000000188
 30
0.0
 11
191.1535021389179292
 21
13.3928690000000188
 31
0.0
  0
LINE
  5
552
100
AcDbEntity
  8
0
 62
256
370
-1
 48
1.0
  6
BYLAYER
100
AcDbLine
 10
191.1535021389179292
 20
13.3928690000000188
 30
0.0
 11
191.1535021389179292
 21
14.5931690000000458
 31
0.0
  0
LINE
  5
553
100
AcDbEntity
  8
0
 62
256
370
-1
 48
1.0
  6
BYLAYER
100
AcDbLine
 10
191.1535021389179292
 20
14.5931690000000458
 30
0.0
 11
189.479502138917951
 21
14.5931690000000458
 31
0.0
  0
LINE
  5
554
100
AcDbEntity
  8
0
 62
256
370
-1
 48
1.0
  6
BYLAYER
100
AcDbLine
 10
189.479502138917951
 20
14.5931690000000458
 30
0.0
 11
189.4795021389179794
 21
19.0635690000000046
 31
0.0
  0
LINE
  5
555
100
AcDbEntity
  8
0
 62
256
370
-1
 48
1.0
  6
BYLAYER
100
AcDbLine
 10
207.2425021389180131
 20
19.0635690000000046
 30
0.0
 11
207.2425021389180131
 21
18.4626690000000373
 31
0.0
  0
LINE
  5
556
100
AcDbEntity
  8
0
 62
256
370
-1
 48
1.0
  6
BYLAYER
100
AcDbLine
 10
207.2425021389180131
 20
18.4626690000000373
 30
0.0
 11
206.4415021389179117
 21
18.4626690000000337
 31
0.0
  0
LINE
  5
557
100
AcDbEntity
  8
0
 62
256
370
-1
 48
1.0
  6
BYLAYER
100
AcDbLine
 10
206.4415021389179117
 20
18.4626690000000337
 30
0.0
 11
206.4415021389179117
 21
15.3621690000000228
 31
0.0
  0
LINE
  5
558
100
AcDbEntity
  8
0
 62
256
370
-1
 48
1.0
  6
BYLAYER
100
AcDbLine
 10
206.4415021389179117
 20
15.3621690000000228
 30
0.0
 11
207.2425021389179847
 21
15.3621690000000228
 31
0.0
  0
LINE
  5
559
100
AcDbEntity
  8
0
 62
256
370
-1
 48
1.0
  6
BYLAYER
100
AcDbLine
 10
207.2425021389179847
 20
15.3621690000000228
 30
0.0
 11
207.2425021389179847
 21
14.3630690000000243
 31
0.0
  0
LINE
  5
55A
100
AcDbEntity
  8
0
 62
256
370
-1
 48
1.0
  6
BYLAYER
100
AcDbLine
 10
207.2425021389179847
 20
14.3630690000000243
 30
0.0
 11
210.2105021389179171
 21
14.3630690000000278
 31
0.0
  0
LINE
  5
55B
100
AcDbEntity
  8
0
 62
256
370
-1
 48
1.0
  6
BYLAYER
100
AcDbLine
 10
207.2425021389180131
 20
23.6620690000000096
 30
0.0
 11
207.2425021389180131
 21
24.264269000000013
 31
0.0
  0
LINE
  5
55C
100
AcDbEntity
  8
0
 62
256
370
-1
 48
1.0
  6
BYLAYER
100
AcDbLine
 10
207.2425021389180131
 20
24.264269000000013
 30
0.0
 11
206.4415021389179401
 21
24.264269000000013
 31
0.0
  0
LINE
  5
55D
100
AcDbEntity
  8
0
 62
256
370
-1
 48
1.0
  6
BYLAYER
100
AcDbLine
 10
206.4415021389179401
 20
24.264269000000013
 30
0.0
 11
206.4415021389179401
 21
27.3634690000000127
 31
0.0
  0
LINE
  5
55E
100
AcDbEntity
  8
0
 62
256
370
-1
 48
1.0
  6
BYLAYER
100
AcDbLine
 10
206.4415021389179401
 20
27.3634690000000127
 30
0.0
 11
207.2425021389179847
 21
27.3634690000000091
 31
0.0
  0
LINE
  5
55F
100
AcDbEntity
  8
0
 62
256
370
-1
 48
1.0
  6
BYLAYER
100
AcDbLine
 10
207.2425021389179847
 20
27.3634690000000091
 30
0.0
 11
207.2425021389179562
 21
28.3638690000000224
 31
0.0
  0
LINE
  5
560
100
AcDbEntity
  8
0
 62
256
370
-1
 48
1.0
  6
BYLAYER
100
AcDbLine
 10
207.2425021389179562
 20
28.3638690000000224
 30
0.0
 11
221.2415021389180083
 21
28.3638690000000224
 31
0.0
  0
LINE
  5
561
100
AcDbEntity
  8
0
 62
256
370
-1
 48
1.0
  6
BYLAYER
100
AcDbLine
 10
221.2415021389180083
 20
28.3638690000000224
 30
0.0
 11
221.2415021389180083
 21
27.3634690000000091
 31
0.0
  0
LINE
  5
562
100
AcDbEntity
  8
0
 62
256
370
-1
 48
1.0
  6
BYLAYER
100
AcDbLine
 10
221.2415021389180083
 20
27.3634690000000091
 30
0.0
 11
222.0425021389180813
 21
27.3634690000000127
 31
0.0
  0
LINE
  5
563
100
AcDbEntity
  8
0
 62
256
370
-1
 48
1.0
  6
BYLAYER
100
AcDbLine
 10
222.0425021389180813
 20
27.3634690000000127
 30
0.0
 11
222.0425021389180813
 21
24.264269000000013
 31
0.0
  0
LINE
  5
564
100
AcDbEntity
  8
0
 62
256
370
-1
 48
1.0
  6
BYLAYER
100
AcDbLine
 10
222.0425021389180813
 20
24.264269000000013
 30
0.0
 11
221.2415021389180652
 21
24.264269000000013
 31
0.0
  0
LINE
  5
565
100
AcDbEntity
  8
0
 62
256
370
-1
 48
1.0
  6
BYLAYER
100
AcDbLine
 10
221.2415021389180652
 20
24.264269000000013
 30
0.0
 11
221.2415021389180652
 21
18.4626690000000373
 31
0.0
  0
LINE
  5
566
100
AcDbEntity
  8
0
 62
256
370
-1
 48
1.0
  6
BYLAYER
100
AcDbLine
 10
221.2415021389180652
 20
18.4626690000000373
 30
0.0
 11
222.0425021389180529
 21
18.4626690000000337
 31
0.0
  0
LINE
  5
567
100
AcDbEntity
  8
0
 62
256
370
-1
 48
1.0
  6
BYLAYER
100
AcDbLine
 10
222.0425021389180529
 20
18.4626690000000337
 30
0.0
 11
222.0425021389180529
 21
15.3621690000000228
 31
0.0
  0
LINE
  5
568
100
AcDbEntity
  8
0
 62
256
370
-1
 48
1.0
  6
BYLAYER
100
AcDbLine
 10
222.0425021389180529
 20
15.3621690000000228
 30
0.0
 11
221.2415021389180083
 21
15.3621690000000228
 31
0.0
  0
LINE
  5
569
100
AcDbEntity
  8
0
 62
256
370
-1
 48
1.0
  6
BYLAYER
100
AcDbLine
 10
221.2415021389180083
 20
15.3621690000000228
 30
0.0
 11
221.2415021389180083
 21
14.3630690000000243
 31
0.0
  0
LINE
  5
56A
100
AcDbEntity
  8
0
 62
256
370
-1
 48
1.0
  6
BYLAYER
100
AcDbLine
 10
221.2415021389180083
 20
14.3630690000000243
 30
0.0
 11
213.5115021389179617
 21
14.3630690000000278
 31
0.0
  0
LINE
  5
56B
100
AcDbEntity
  8
0
 62
256
370
-1
 48
1.0
  6
BYLAYER
100
AcDbLine
 10
189.4795021389179794
 20
19.0635690000000046
 30
0.0
 11
161.7105021389179171
 21
19.0635690000000046
 31
0.0
  0
LINE
  5
56C
100
AcDbEntity
  8
0
 62
256
370
-1
 48
1.0
  6
BYLAYER
100
AcDbLine
 10
161.7105021389179171
 20
23.662069000000006
 30
0.0
 11
189.479502138917951
 21
23.662069000000006
 31
0.0
  0
LINE
  5
56D
100
AcDbEntity
  8
0
 62
256
370
-1
 48
1.0
  6
BYLAYER
100
AcDbLine
 10
196.1295021389180135
 20
19.0635690000000011
 30
0.0
 11
207.2425021389180131
 21
19.0635690000000046
 31
0.0
  0
LINE
  5
56E
100
AcDbEntity
  8
0
 62
256
370
-1
 48
1.0
  6
BYLAYER
100
AcDbLine
 10
196.1295021389180704
 20
23.662069000000006
 30
0.0
 11
207.2425021389180131
 21
23.6620690000000096
 31
0.0
  0
LINE
  5
56F
100
AcDbEntity
  8
0
 62
256
370
-1
 48
1.0
  6
BYLAYER
100
AcDbLine
 10
210.2105021389179171
 20
14.3630690000000278
 30
0.0
 11
210.2105021389179171
 21
13.3928690000000046
 31
0.0
  0
LINE
  5
570
100
AcDbEntity
  8
0
 62
256
370
-1
 48
1.0
  6
BYLAYER
100
AcDbLine
 10
213.5115021389179333
 20
13.3928690000000046
 30
0.0
 11
213.5115021389179617
 21
14.3630690000000278
 31
0.0
  0
LINE
  5
571
100
AcDbEntity
  8
0
 62
256
370
-1
 48
1.0
  6
BYLAYER
100
AcDbLine
 10
242.6735021389179678
 20
14.3630690000000065
 30
0.0
 11
245.0545021389179965
 21
14.3630690000000243
 31
0.0
  0
LINE
  5
572
100
AcDbEntity
  8
0
 62
256
370
-1
 48
1.0
  6
BYLAYER
100
AcDbLine
 10
245.0545021389179965
 20
14.3630690000000243
 30
0.0
 11
245.0545021389179965
 21
15.3621690000000228
 31
0.0
  0
LINE
  5
573
100
AcDbEntity
  8
0
 62
256
370
-1
 48
1.0
  6
BYLAYER
100
AcDbLine
 10
245.0545021389179965
 20
15.3621690000000228
 30
0.0
 11
245.8535021389180031
 21
15.3621690000000264
 31
0.0
  0
LINE
  5
574
100
AcDbEntity
  8
0
 62
256
370
-1
 48
1.0
  6
BYLAYER
100
AcDbLine
 10
245.8535021389180031
 20
15.3621690000000264
 30
0.0
 11
245.8535021389180031
 21
18.4626690000000337
 31
0.0
  0
LINE
  5
575
100
AcDbEntity
  8
0
 62
256
370
-1
 48
1.0
  6
BYLAYER
100
AcDbLine
 10
245.8535021389180031
 20
18.4626690000000337
 30
0.0
 11
245.0545021389180249
 21
18.4626690000000373
 31
0.0
  0
LINE
  5
576
100
AcDbEntity
  8
0
 62
256
370
-1
 48
1.0
  6
BYLAYER
100
AcDbLine
 10
245.0545021389180249
 20
18.4626690000000373
 30
0.0
 11
245.0545021389180249
 21
24.2642690000000165
 31
0.0
  0
LINE
  5
577
100
AcDbEntity
  8
0
 62
256
370
-1
 48
1.0
  6
BYLAYER
100
AcDbLine
 10
245.0545021389180249
 20
24.2642690000000165
 30
0.0
 11
245.8535021389179747
 21
24.2642690000000165
 31
0.0
  0
LINE
  5
578
100
AcDbEntity
  8
0
 62
256
370
-1
 48
1.0
  6
BYLAYER
100
AcDbLine
 10
245.8535021389179747
 20
24.2642690000000165
 30
0.0
 11
245.8535021389179747
 21
27.3634690000000091
 31
0.0
  0
LINE
  5
579
100
AcDbEntity
  8
0
 62
256
370
-1
 48
1.0
  6
BYLAYER
100
AcDbLine
 10
245.8535021389179747
 20
27.3634690000000091
 30
0.0
 11
245.0545021389179681
 21
27.3634690000000091
 31
0.0
  0
LINE
  5
57A
100
AcDbEntity
  8
0
 62
256
370
-1
 48
1.0
  6
BYLAYER
100
AcDbLine
 10
245.0545021389179681
 20
27.3634690000000091
 30
0.0
 11
245.0545021389179965
 21
28.3638690000000224
 31
0.0
  0
LINE
  5
57B
100
AcDbEntity
  8
0
 62
256
370
-1
 48
1.0
  6
BYLAYER
100
AcDbLine
 10
245.0545021389179965
 20
28.3638690000000224
 30
0.0
 11
242.6735021389179394
 21
28.3638690000000082
 31
0.0
  0
LINE
  5
57C
100
AcDbEntity
  8
poker
 62
256
370
-1
 48
1.0
  6
BYLAYER
100
AcDbLine
 10
12.0240487389179336
 20
52.7638689999999997
 30
0.0
 11
12.0240487389179336
 21
47.7628690000000091
 31
0.0
  0
LINE
  5
57D
100
AcDbEntity
  8
poker
 62
256
370
-1
 48
1.0
  6
BYLAYER
100
AcDbLine
 10
297.4003421389180062
 20
52.7638689999999997
 30
0.0
 11
297.4003421389180062
 21
47.7628690000000091
 31
0.0
  0
CIRCLE
  5
57E
100
AcDbEntity
  8
0
 62
256
370
-1
 48
1.0
  6
BYLAYER
100
AcDbCircle
 10
7.0240487389179336
 20
6.9999999999999982
 30
0.0
 40
1.6000000000000001
  0
CIRCLE
  5
57F
100
AcDbEntity
  8
0
 62
256
370
-1
 48
1.0
  6
BYLAYER
100
AcDbCircle
 10
7.0240487389179194
 20
111.92616900000003
 30
0.0
 40
1.6000000000000001
  0
CIRCLE
  5
580
100
AcDbEntity
  8
0
 62
256
370
-1
 48
1.0
  6
BYLAYER
100
AcDbCircle
 10
154.7121987389179765
 20
111.9261690000000158
 30
0.0
 40
1.6000000000000001
  0
CIRCLE
  5
581
100
AcDbEntity
  8
0
 62
256
370
-1
 48
1.0
  6
BYLAYER
100
AcDbCircle
 10
302.4003421389180062
 20
111.9261689999999874
 30
0.0
 40
1.6000000000000001
  0
CIRCLE
  5
582
100
AcDbEntity
  8
0
 62
256
370
-1
 48
1.0
  6
BYLAYER
100
AcDbCircle
 10
302.4003421389180062
 20
7.0000000000000009
 30
0.0
 40
1.6000000000000001
  0
CIRCLE
  5
583
100
AcDbEntity
  8
0
 62
256
370
-1
 48
1.0
  6
BYLAYER
100
AcDbCircle
 10
154.712198738917948
 20
6.9999999999999991
 30
0.0
 40
1.6000000000000001
  0
LINE
  5
584
100
AcDbEntity
  8
0
 62
256
370
-1
 48
1.0
  6
BYLAYER
100
AcDbLine
 10
21.503542138917922
 20
66.4625689999999594
 30
0.0
 11
16.7424021389179387
 21
66.4625689999999878
 31
0.0
  0
LINE
  5
585
100
AcDbEntity
  8
0
 62
256
370
-1
 48
1.0
  6
BYLAYER
100
AcDbLine
 10
16.7424021389179387
 20
66.4625689999999878
 30
0.0
 11
16.7424021389179387
 21
65.4634689999999893
 31
0.0
  0
LINE
  5
586
100
AcDbEntity
  8
0
 62
256
370
-1
 48
1.0
  6
BYLAYER
100
AcDbLine
 10
16.7424021389179387
 20
65.4634689999999893
 30
0.0
 11
15.9418021389179358
 21
65.4634689999999893
 31
0.0
  0
LINE
  5
587
100
AcDbEntity
  8
0
 62
256
370
-1
 48
1.0
  6
BYLAYER
100
AcDbLine
 10
15.9418021389179358
 20
65.4634689999999893
 30
0.0
 11
15.9418021389179358
 21
62.3629689999999712
 31
0.0
  0
LINE
  5
588
100
AcDbEntity
  8
0
 62
256
370
-1
 48
1.0
  6
BYLAYER
100
AcDbLine
 10
15.9418021389179358
 20
62.3629689999999712
 30
0.0
 11
16.7424021389179387
 21
62.362968999999957
 31
0.0
  0
LINE
  5
589
100
AcDbEntity
  8
0
 62
256
370
-1
 48
1.0
  6
BYLAYER
100
AcDbLine
 10
16.7424021389179387
 20
62.362968999999957
 30
0.0
 11
16.7424021389179387
 21
56.562868999999985
 31
0.0
  0
LINE
  5
58A
100
AcDbEntity
  8
0
 62
256
370
-1
 48
1.0
  6
BYLAYER
100
AcDbLine
 10
16.7424021389179387
 20
56.562868999999985
 30
0.0
 11
15.9418021389179358
 21
56.5628689999999708
 31
0.0
  0
LINE
  5
58B
100
AcDbEntity
  8
0
 62
256
370
-1
 48
1.0
  6
BYLAYER
100
AcDbLine
 10
15.9418021389179358
 20
56.5628689999999708
 30
0.0
 11
15.9418021389179358
 21
53.4637689999999637
 31
0.0
  0
LINE
  5
58C
100
AcDbEntity
  8
0
 62
256
370
-1
 48
1.0
  6
BYLAYER
100
AcDbLine
 10
15.9418021389179358
 20
53.4637689999999637
 30
0.0
 11
16.7424021389179387
 21
53.4637689999999637
 31
0.0
  0
LINE
  5
58D
100
AcDbEntity
  8
0
 62
256
370
-1
 48
1.0
  6
BYLAYER
100
AcDbLine
 10
16.7424021389179387
 20
53.4637689999999637
 30
0.0
 11
16.7424021389179387
 21
52.4632689999999755
 31
0.0
  0
LINE
  5
58E
100
AcDbEntity
  8
0
 62
256
370
-1
 48
1.0
  6
BYLAYER
100
AcDbLine
 10
16.7424021389179387
 20
52.4632689999999755
 30
0.0
 11
21.503542138917922
 21
52.4618689999999859
 31
0.0
  0
LINE
  5
58F
100
AcDbEntity
  8
bottom
 62
256
370
-1
 48
1.0
  6
BYLAYER
100
AcDbLine
 10
37.7431987389179682
 20
63.4639689999999916
 30
0.0
 11
37.7431987389179753
 21
55.4629690000000082
 31
0.0
  0
LINE
  5
590
100
AcDbEntity
  8
bottom
 62
256
370
-1
 48
1.0
  6
BYLAYER
100
AcDbLine
 10
43.7431987389179753
 20
55.4629690000000082
 30
0.0
 11
43.7431987389179682
 21
63.4639690000000058
 31
0.0
  0
ARC
  5
591
100
AcDbEntity
  8
bottom
 62
256
370
-1
 48
1.0
  6
BYLAYER
100
AcDbCircle
 10
40.7431987389179682
 20
63.4639689999999916
 30
0.0
 40
3.0
100
AcDbArc
 50
0.0
 51
180.0
  0
ARC
  5
592
100
AcDbEntity
  8
bottom
 62
256
370
-1
 48
1.0
  6
BYLAYER
100
AcDbCircle
 10
40.7431987389179824
 20
55.4629690000000011
 30
0.0
 40
2.9999999999999929
100
AcDbArc
 50
180.0
 51
0.0
  0
LINE
  5
593
100
AcDbEntity
  8
building
 62
256
370
-1
 48
1.0
  6
BYLAYER
100
AcDbLine
 10
154.7121987389179765
 20
112.9261690000000158
 30
0.0
 11
154.7121987389179765
 21
115.842892179157289
 31
0.0
  0
LINE
  5
594
100
AcDbEntity
  8
building
 62
256
370
-1
 48
1.0
  6
BYLAYER
100
AcDbLine
 10
154.7121987389179765
 20
115.842892179157289
 30
0.0
 11
154.7121987389179765
 21
106.0583815573665589
 31
0.0
  0
LINE
  5
595
100
AcDbEntity
  8
building
 62
256
370
-1
 48
1.0
  6
BYLAYER
100
AcDbLine
 10
154.7121987389179765
 20
6.0
 30
0.0
 11
154.7121987389179765
 21
12.7484317225521409
 31
0.0
  0
LINE
  5
596
100
AcDbEntity
  8
building
 62
256
370
-1
 48
1.0
  6
BYLAYER
100
AcDbLine
 10
154.7121987389179765
 20
12.7484317225521409
 30
0.0
 11
154.7121987389179765
 21
1.0
 31
0.0
  0
LINE
  5
597
100
AcDbEntity
  8
building
 62
256
370
-1
 48
1.0
  6
BYLAYER
100
AcDbLine
 10
38.0291021389179491
 20
11.9999999999999982
 30
0.0
 11
38.0291021389179491
 21
30.8870690000000039
 31
0.0
  0
LINE
  5
598
100
AcDbEntity
  8
building
 62
256
370
-1
 48
1.0
  6
BYLAYER
100
AcDbLine
 10
38.0291021389179562
 20
30.8870690000000039
 30
0.0
 11
12.0240487389179389
 21
30.8870690000000039
 31
0.0
  0
LINE
  5
599
100
AcDbEntity
  8
building
 62
256
370
-1
 48
1.0
  6
BYLAYER
100
AcDbLine
 10
297.4003421389180062
 20
30.887069000000011
 30
0.0
 11
247.5788021389180074
 21
30.8870690000000039
 31
0.0
  0
LINE
  5
59A
100
AcDbEntity
  8
building
 62
256
370
-1
 48
1.0
  6
BYLAYER
100
AcDbLine
 10
247.5788021389180074
 20
30.8870690000000039
 30
0.0
 11
247.5788021389180074
 21
12.0
 31
0.0
  0
LINE
  5
59B
100
AcDbEntity
  8
building
 62
256
370
-1
 48
1.0
  6
BYLAYER
100
AcDbLine
 10
12.0240487389179336
 20
107.92616900000003
 30
0.0
 11
11.0240487389179336
 21
107.92616900000003
 31
0.0
  0
LINE
  5
59C
100
AcDbEntity
  8
building
 62
256
370
-1
 48
1.0
  6
BYLAYER
100
AcDbLine
 10
11.0240487389179336
 20
107.92616900000003
 30
0.0
 11
11.0240487389179336
 21
12.0
 31
0.0
  0
LINE
  5
59D
100
AcDbEntity
  8
building
 62
256
370
-1
 48
1.0
  6
BYLAYER
100
AcDbLine
 10
11.0240487389179336
 20
12.0
 30
0.0
 11
11.0240487389179336
 21
11.0
 31
0.0
  0
LINE
  5
59E
100
AcDbEntity
  8
building
 62
256
370
-1
 48
1.0
  6
BYLAYER
100
AcDbLine
 10
11.0240487389179336
 20
11.0
 30
0.0
 11
297.4003421389180062
 21
11.0
 31
0.0
  0
LINE
  5
59F
100
AcDbEntity
  8
building
 62
256
370
-1
 48
1.0
  6
BYLAYER
100
AcDbLine
 10
297.4003421389180062
 20
11.0
 30
0.0
 11
298.4003421389180062
 21
11.0
 31
0.0
  0
LINE
  5
5A0
100
AcDbEntity
  8
building
 62
256
370
-1
 48
1.0
  6
BYLAYER
100
AcDbLine
 10
298.4003421389180062
 20
11.0
 30
0.0
 11
298.4003421389180062
 21
106.92616900000003
 31
0.0
  0
LINE
  5
5A1
100
AcDbEntity
  8
building
 62
256
370
-1
 48
1.0
  6
BYLAYER
100
AcDbLine
 10
298.4003421389180062
 20
106.92616900000003
 30
0.0
 11
298.4003421389180062
 21
107.92616900000003
 31
0.0
  0
LINE
  5
5A2
100
AcDbEntity
  8
building
 62
256
370
-1
 48
1.0
  6
BYLAYER
100
AcDbLine
 10
298.4003421389180062
 20
107.92616900000003
 30
0.0
 11
12.0240487389179336
 21
107.92616900000003
 31
0.0
  0
LINE
  5
5A3
100
AcDbEntity
  8
building
 62
256
370
-1
 48
1.0
  6
BYLAYER
100
AcDbLine
 10
12.0240487389179354
 20
30.8870690000000039
 30
0.0
 11
11.0240487389179336
 21
30.8870690000000039
 31
0.0
  0
LINE
  5
5A4
100
AcDbEntity
  8
building
 62
256
370
-1
 48
1.0
  6
BYLAYER
100
AcDbLine
 10
38.0291021389179491
 20
30.8870690000000039
 30
0.0
 11
38.0291021389179491
 21
30.8870690000000039
 31
0.0
  0
LINE
  5
5A5
100
AcDbEntity
  8
building
 62
256
370
-1
 48
1.0
  6
BYLAYER
100
AcDbLine
 10
38.0291021389179491
 20
30.8870690000000039
 30
0.0
 11
38.0291021389179491
 21
30.8870690000000039
 31
0.0
  0
LINE
  5
5A6
100
AcDbEntity
  8
building
 62
256
370
-1
 48
1.0
  6
BYLAYER
100
AcDbLine
 10
38.0291021389179491
 20
12.0
 30
0.0
 11
38.0291021389179491
 21
11.0
 31
0.0
  0
LINE
  5
5A7
100
AcDbEntity
  8
building
 62
256
370
-1
 48
1.0
  6
BYLAYER
100
AcDbLine
 10
38.0291021389179491
 20
12.0
 30
0.0
 11
38.0291021389179491
 21
12.0
 31
0.0
  0
LINE
  5
5A8
100
AcDbEntity
  8
building
 62
256
370
-1
 48
1.0
  6
BYLAYER
100
AcDbLine
 10
247.5788021389180358
 20
12.0
 30
0.0
 11
247.5788021389180074
 21
11.0
 31
0.0
  0
LINE
  5
5A9
100
AcDbEntity
  8
building
 62
256
370
-1
 48
1.0
  6
BYLAYER
100
AcDbLine
 10
297.4003421389180062
 20
30.8870690000000074
 30
0.0
 11
298.4003421389180062
 21
30.8870690000000039
 31
0.0
  0
LINE
  5
5AA
100
AcDbEntity
  8
building
 62
256
370
-1
 48
1.0
  6
BYLAYER
100
AcDbLine
 10
3.0240487389179336
 20
107.92616900000003
 30
0.0
 11
3.0240487389179336
 21
11.0
 31
0.0
  0
LINE
  5
5AB
100
AcDbEntity
  8
building
 62
256
370
-1
 48
1.0
  6
BYLAYER
100
AcDbLine
 10
3.0240487389179336
 20
11.0
 30
0.0
 11
3.0240487389179322
 21
3.0
 31
0.0
  0
LINE
  5
5AC
100
AcDbEntity
  8
building
 62
256
370
-1
 48
1.0
  6
BYLAYER
100
AcDbLine
 10
3.0240487389179322
 20
3.0
 30
0.0
 11
298.4003421389180062
 21
3.0
 31
0.0
  0
LINE
  5
5AD
100
AcDbEntity
  8
building
 62
256
370
-1
 48
1.0
  6
BYLAYER
100
AcDbLine
 10
298.4003421389180062
 20
3.0
 30
0.0
 11
306.4003421389180062
 21
3.0
 31
0.0
  0
LINE
  5
5AE
100
AcDbEntity
  8
building
 62
256
370
-1
 48
1.0
  6
BYLAYER
100
AcDbLine
 10
306.4003421389180062
 20
3.0
 30
0.0
 11
306.4003421389180062
 21
107.92616900000003
 31
0.0
  0
LINE
  5
5AF
100
AcDbEntity
  8
building
 62
256
370
-1
 48
1.0
  6
BYLAYER
100
AcDbLine
 10
306.4003421389180062
 20
107.92616900000003
 30
0.0
 11
306.4003421389180062
 21
115.92616900000003
 31
0.0
  0
LINE
  5
5B0
100
AcDbEntity
  8
building
 62
256
370
-1
 48
1.0
  6
BYLAYER
100
AcDbLine
 10
306.4003421389180062
 20
115.92616900000003
 30
0.0
 11
3.0240487389179336
 21
115.92616900000003
 31
0.0
  0
LINE
  5
5B1
100
AcDbEntity
  8
building
 62
256
370
-1
 48
1.0
  6
BYLAYER
100
AcDbLine
 10
3.0240487389179336
 20
115.92616900000003
 30
0.0
 11
3.0240487389179336
 21
107.9261690000000442
 31
0.0
  0
LINE
  5
5B2
100
AcDbEntity
  8
building
 62
256
370
-1
 48
1.0
  6
BYLAYER
100
AcDbLine
 10
3.0240487389179336
 20
115.9261690000000016
 30
0.0
 11
11.0240487389179336
 21
107.92616900000003
 31
0.0
  0
LINE
  5
5B3
100
AcDbEntity
  8
building
 62
256
370
-1
 48
1.0
  6
BYLAYER
100
AcDbLine
 10
11.0240487389179336
 20
11.0
 30
0.0
 11
3.0240487389179322
 21
3.0
 31
0.0
  0
LINE
  5
5B4
100
AcDbEntity
  8
building
 62
256
370
-1
 48
1.0
  6
BYLAYER
100
AcDbLine
 10
298.4003421389180062
 20
11.0
 30
0.0
 11
306.4003421389180062
 21
3.0
 31
0.0
  0
LINE
  5
5B5
100
AcDbEntity
  8
building
 62
256
370
-1
 48
1.0
  6
BYLAYER
100
AcDbLine
 10
298.4003421389180062
 20
107.92616900000003
 30
0.0
 11
306.4003421389180062
 21
115.92616900000003
 31
0.0
  0
LINE
  5
5B6
100
AcDbEntity
  8
building
 62
256
370
-1
 48
1.0
  6
BYLAYER
100
AcDbLine
 10
302.4003421389180062
 20
111.92616900000003
 30
0.0
 11
302.4003421389180062
 21
7.0
 31
0.0
  0
LINE
  5
5B7
100
AcDbEntity
  8
building
 62
256
370
-1
 48
1.0
  6
BYLAYER
100
AcDbLine
 10
302.4003421389180062
 20
7.0
 30
0.0
 11
7.0240487389179327
 21
7.0
 31
0.0
  0
LINE
  5
5B8
100
AcDbEntity
  8
building
 62
256
370
-1
 48
1.0
  6
BYLAYER
100
AcDbLine
 10
7.0240487389179327
 20
7.0
 30
0.0
 11
7.0240487389179327
 21
111.9261690000000158
 31
0.0
  0
LINE
  5
5B9
100
AcDbEntity
  8
building
 62
256
370
-1
 48
1.0
  6
BYLAYER
100
AcDbLine
 10
7.0240487389179327
 20
111.9261690000000158
 30
0.0
 11
302.4003421389180062
 21
111.9261690000000158
 31
0.0
  0
CIRCLE
  5
5BA
100
AcDbEntity
  8
top
 62
256
370
-1
 48
1.0
  6
BYLAYER
100
AcDbCircle
 10
302.4003421389180062
 20
111.9261690000000158
 30
0.0
 40
1.6000000000000001
  0
CIRCLE
  5
5BB
100
AcDbEntity
  8
top
 62
256
370
-1
 48
1.0
  6
BYLAYER
100
AcDbCircle
 10
154.7121987389179765
 20
111.9261690000000158
 30
0.0
 40
1.6000000000000001
  0
CIRCLE
  5
5BC
100
AcDbEntity
  8
top
 62
256
370
-1
 48
1.0
  6
BYLAYER
100
AcDbCircle
 10
7.0240487389179425
 20
111.9261690000000016
 30
0.0
 40
1.6000000000000001
  0
CIRCLE
  5
5BD
100
AcDbEntity
  8
top
 62
256
370
-1
 48
1.0
  6
BYLAYER
100
AcDbCircle
 10
7.0240487389179336
 20
7.0
 30
0.0
 40
1.6000000000000001
  0
CIRCLE
  5
5BE
100
AcDbEntity
  8
top
 62
256
370
-1
 48
1.0
  6
BYLAYER
100
AcDbCircle
 10
154.7121987389179765
 20
7.0
 30
0.0
 40
1.6000000000000001
  0
CIRCLE
  5
5BF
100
AcDbEntity
  8
top
 62
256
370
-1
 48
1.0
  6
BYLAYER
100
AcDbCircle
 10
302.4003421389180062
 20
7.0
 30
0.0
 40
1.6000000000000001
  0
LINE
  5
5C0
100
AcDbEntity
  8
building
 62
256
370
-1
 48
1.0
  6
BYLAYER
100
AcDbLine
 10
302.4003421389180062
 20
7.0000000000000009
 30
0.0
 11
306.4003421389180062
 21
7.0000000000000009
 31
0.0
  0
LINE
  5
5C1
100
AcDbEntity
  8
building
 62
256
370
-1
 48
1.0
  6
BYLAYER
100
AcDbLine
 10
302.4003421389180062
 20
7.0000000000000009
 30
0.0
 11
302.4003421389180062
 21
3.0
 31
0.0
  0
LINE
  5
5C2
100
AcDbEntity
  8
building
 62
256
370
-1
 48
1.0
  6
BYLAYER
100
AcDbLine
 10
302.4003421389180062
 20
111.9261690000000158
 30
0.0
 11
306.4003421389180062
 21
111.92616900000003
 31
0.0
  0
LINE
  5
5C3
100
AcDbEntity
  8
building
 62
256
370
-1
 48
1.0
  6
BYLAYER
100
AcDbLine
 10
302.4003421389180062
 20
111.9261690000000158
 30
0.0
 11
302.4003421389180062
 21
115.92616900000003
 31
0.0
  0
LINE
  5
5C4
100
AcDbEntity
  8
building
 62
256
370
-1
 48
1.0
  6
BYLAYER
100
AcDbLine
 10
7.0240487389179327
 20
111.92616900000003
 30
0.0
 11
7.0240487389179407
 21
115.92616900000003
 31
0.0
  0
LINE
  5
5C5
100
AcDbEntity
  8
building
 62
256
370
-1
 48
1.0
  6
BYLAYER
100
AcDbLine
 10
7.0240487389179318
 20
111.9261690000000158
 30
0.0
 11
3.0240487389179336
 21
111.9261690000000442
 31
0.0
  0
LINE
  5
5C6
100
AcDbEntity
  8
building
 62
256
370
-1
 48
1.0
  6
BYLAYER
100
AcDbLine
 10
7.0240487389179336
 20
7.0
 30
0.0
 11
7.0240487389179336
 21
3.0
 31
0.0
  0
LINE
  5
5C7
100
AcDbEntity
  8
building
 62
256
370
-1
 48
1.0
  6
BYLAYER
100
AcDbLine
 10
7.0240487389179318
 20
6.9999999999999982
 30
0.0
 11
3.0240487389179327
 21
7.0
 31
0.0
  0
ARC
  5
5C8
100
AcDbEntity
  8
top
 62
256
370
-1
 48
1.0
  6
BYLAYER
100
AcDbCircle
 10
302.4003421389180062
 20
7.0
 30
0.0
 40
4.0
100
AcDbArc
 50
270.0
 51
0.0
  0
ARC
  5
5C9
100
AcDbEntity
  8
top
 62
256
370
-1
 48
1.0
  6
BYLAYER
100
AcDbCircle
 10
302.4003421389180062
 20
111.92616900000003
 30
0.0
 40
4.0
100
AcDbArc
 50
0.0
 51
90.0
  0
ARC
  5
5CA
100
AcDbEntity
  8
top
 62
256
370
-1
 48
1.0
  6
BYLAYER
100
AcDbCircle
 10
7.0240487389179336
 20
111.9261690000000442
 30
0.0
 40
4.0
100
AcDbArc
 50
89.9999999999998863
 51
180.0
  0
ARC
  5
5CB
100
AcDbEntity
  8
top
 62
256
370
-1
 48
1.0
  6
BYLAYER
100
AcDbCircle
 10
7.0240487389179336
 20
7.0
 30
0.0
 40
4.0
100
AcDbArc
 50
180.0
 51
270.0
  0
LINE
  5
5CC
100
AcDbEntity
  8
top
 62
256
370
-1
 48
1.0
  6
BYLAYER
100
AcDbLine
 10
302.4003421389180062
 20
115.92616900000003
 30
0.0
 11
7.0240487389179407
 21
115.92616900000003
 31
0.0
  0
LINE
  5
5CD
100
AcDbEntity
  8
top
 62
256
370
-1
 48
1.0
  6
BYLAYER
100
AcDbLine
 10
3.0240487389179336
 20
111.9261690000000442
 30
0.0
 11
3.0240487389179336
 21
7.0000000000000009
 31
0.0
  0
LINE
  5
5CE
100
AcDbEntity
  8
top
 62
256
370
-1
 48
1.0
  6
BYLAYER
100
AcDbLine
 10
7.0240487389179336
 20
3.0
 30
0.0
 11
302.4003421389180062
 21
3.0
 31
0.0
  0
LINE
  5
5CF
100
AcDbEntity
  8
top
 62
256
370
-1
 48
1.0
  6
BYLAYER
100
AcDbLine
 10
306.4003421389180062
 20
7.0000000000000009
 30
0.0
 11
306.4003421389180062
 21
111.92616900000003
 31
0.0
  0
LINE
  5
5D0
100
AcDbEntity
  8
top
 62
256
370
-1
 48
1.0
  6
BYLAYER
100
AcDbLine
 10
298.400342138918063
 20
107.92616900000003
 30
0.0
 11
11.0240487389179371
 21
107.92616900000003
 31
0.0
  0
LINE
  5
5D1
100
AcDbEntity
  8
top
 62
256
370
-1
 48
1.0
  6
BYLAYER
100
AcDbLine
 10
11.0240487389179371
 20
107.92616900000003
 30
0.0
 11
11.0240487389179336
 21
30.8870690000000003
 31
0.0
  0
LINE
  5
5D2
100
AcDbEntity
  8
top
 62
256
370
-1
 48
1.0
  6
BYLAYER
100
AcDbLine
 10
11.0240487389179336
 20
30.8870690000000003
 30
0.0
 11
38.0291021389179491
 21
30.8870690000000003
 31
0.0
  0
LINE
  5
5D3
100
AcDbEntity
  8
top
 62
256
370
-1
 48
1.0
  6
BYLAYER
100
AcDbLine
 10
38.0291021389179491
 20
30.8870690000000003
 30
0.0
 11
38.0291021389179491
 21
11.0
 31
0.0
  0
LINE
  5
5D4
100
AcDbEntity
  8
top
 62
256
370
-1
 48
1.0
  6
BYLAYER
100
AcDbLine
 10
38.0291021389179491
 20
11.0
 30
0.0
 11
247.5788021389179789
 21
11.0
 31
0.0
  0
LINE
  5
5D5
100
AcDbEntity
  8
top
 62
256
370
-1
 48
1.0
  6
BYLAYER
100
AcDbLine
 10
247.5788021389179789
 20
11.0
 30
0.0
 11
247.5788021389180074
 21
30.8870690000000039
 31
0.0
  0
LINE
  5
5D6
100
AcDbEntity
  8
top
 62
256
370
-1
 48
1.0
  6
BYLAYER
100
AcDbLine
 10
247.5788021389180074
 20
30.8870690000000039
 30
0.0
 11
298.4003421389180062
 21
30.8870690000000003
 31
0.0
  0
LINE
  5
5D7
100
AcDbEntity
  8
top
 62
256
370
-1
 48
1.0
  6
BYLAYER
100
AcDbLine
 10
298.4003421389180062
 20
30.8870690000000003
 30
0.0
 11
298.400342138918063
 21
107.92616900000003
 31
0.0
  0
LINE
  5
5D8
100
AcDbEntity
  8
building
 62
256
370
-1
 48
1.0
  6
BYLAYER
100
AcDbLine
 10
22.7431987389179824
 20
116.9261690000000016
 30
0.0
 11
22.7431987389179824
 21
125.0
 31
0.0
  0
LINE
  5
5D9
100
AcDbEntity
  8
building
 62
256
370
-1
 48
1.0
  6
BYLAYER
100
AcDbLine
 10
22.7431987389179824
 20
125.0
 30
0.0
 11
22.7431987389179824
 21
91.0
 31
0.0
  0
LINE
  5
5DA
100
AcDbEntity
  8
building
 62
256
370
-1
 48
1.0
  6
BYLAYER
100
AcDbLine
 10
22.7431987389179824
 20
116.926168999997742
 30
0.0
 11
22.7431987389179824
 21
116.926168999997742
 31
0.0
  0
LINE
  5
5DB
100
AcDbEntity
  8
building
 62
256
370
-1
 48
1.0
  6
BYLAYER
100
AcDbLine
 10
36.7431987389179824
 20
116.926168999997742
 30
0.0
 11
36.7431987389179824
 21
125.0
 31
0.0
  0
LINE
  5
5DC
100
AcDbEntity
  8
building
 62
256
370
-1
 48
1.0
  6
BYLAYER
100
AcDbLine
 10
36.7431987389179824
 20
125.0
 30
0.0
 11
36.7431987389179824
 21
91.0
 31
0.0
  0
LINE
  5
5DD
100
AcDbEntity
  8
building
 62
256
370
-1
 48
1.0
  6
BYLAYER
100
AcDbLine
 10
33.5365208632750438
 20
99.5328985902733052
 30
0.0
 11
39.0
 21
99.5328985902733052
 31
0.0
  0
LINE
  5
5DE
100
AcDbEntity
  8
building
 62
256
370
-1
 48
1.0
  6
BYLAYER
100
AcDbLine
 10
39.0
 20
99.5328985902733052
 30
0.0
 11
19.0
 21
99.5328985902733052
 31
0.0
  0
CIRCLE
  5
5DF
100
AcDbEntity
  8
building
 62
256
370
-1
 48
1.0
  6
BYLAYER
100
AcDbCircle
 10
22.7431987389179824
 20
99.5328985902733052
 30
0.0
 40
2.0006068012667151
  0
CIRCLE
  5
5E0
100
AcDbEntity
  8
building
 62
256
370
-1
 48
1.0
  6
BYLAYER
100
AcDbCircle
 10
36.7431987389179753
 20
99.5328985902733194
 30
0.0
 40
2.000606801266708
  0
CIRCLE
  5
5E1
100
AcDbEntity
  8
building
 62
256
370
-1
 48
1.0
  6
BYLAYER
100
AcDbCircle
 10
36.7431987389179824
 20
115.9261690000000442
 30
0.0
 40
2.0
  0
CIRCLE
  5
5E2
100
AcDbEntity
  8
building
 62
256
370
-1
 48
1.0
  6
BYLAYER
100
AcDbCircle
 10
22.7431987389179824
 20
115.9261690000000442
 30
0.0
 40
2.0
  0
LINE
  5
5E3
100
AcDbEntity
  8
building
 62
256
370
-1
 48
1.0
  6
BYLAYER
100
AcDbLine
 10
18.7431987389179895
 20
111.9261690000000158
 30
0.0
 11
18.7431987389179895
 21
113.57729787054312
 31
0.0
  0
LINE
  5
5E4
100
AcDbEntity
  8
building
 62
256
370
-1
 48
1.0
  6
BYLAYER
100
AcDbLine
 10
18.7431987389179895
 20
113.57729787054312
 30
0.0
 11
18.7431987389179895
 21
109.7831217626407039
 31
0.0
  0
LINE
  5
5E5
100
AcDbEntity
  8
building
 62
256
370
-1
 48
1.0
  6
BYLAYER
100
AcDbLine
 10
40.7431987389179824
 20
111.9261690000000158
 30
0.0
 11
40.7431987389179824
 21
114.5261689999999959
 31
0.0
  0
LINE
  5
5E6
100
AcDbEntity
  8
building
 62
256
370
-1
 48
1.0
  6
BYLAYER
100
AcDbLine
 10
40.7431987389179824
 20
114.5261689999999959
 30
0.0
 11
40.7431987389179824
 21
109.7335246893347858
 31
0.0
  0
ARC
  5
5E7
100
AcDbEntity
  8
open layer
 62
256
370
-1
 48
1.0
  6
BYLAYER
100
AcDbCircle
 10
302.4003421389180062
 20
7.0
 30
0.0
 40
4.0
100
AcDbArc
 50
270.0
 51
0.0
  0
ARC
  5
5E8
100
AcDbEntity
  8
open layer
 62
256
370
-1
 48
1.0
  6
BYLAYER
100
AcDbCircle
 10
302.4003421389180062
 20
111.92616900000003
 30
0.0
 40
4.0
100
AcDbArc
 50
0.0
 51
90.0
  0
ARC
  5
5E9
100
AcDbEntity
  8
open layer
 62
256
370
-1
 48
1.0
  6
BYLAYER
100
AcDbCircle
 10
7.0240487389179336
 20
111.9261690000000442
 30
0.0
 40
4.0
100
AcDbArc
 50
89.9999999999998863
 51
180.0
  0
ARC
  5
5EA
100
AcDbEntity
  8
open layer
 62
256
370
-1
 48
1.0
  6
BYLAYER
100
AcDbCircle
 10
7.0240487389179336
 20
7.0
 30
0.0
 40
4.0
100
AcDbArc
 50
180.0
 51
270.0
  0
ARC
  5
5EB
100
AcDbEntity
  8
open layer
 62
256
370
-1
 48
1.0
  6
BYLAYER
100
AcDbCircle
 10
20.7431987389179824
 20
113.9261690000000442
 30
0.0
 40
2.0
100
AcDbArc
 50
0.0
 51
90.0000000000105871
  0
ARC
  5
5EC
100
AcDbEntity
  8
open layer
 62
256
370
-1
 48
1.0
  6
BYLAYER
100
AcDbCircle
 10
38.7431987389179824
 20
113.9261690000000442
 30
0.0
 40
2.0
100
AcDbArc
 50
89.9999999999145075
 51
180.0
  0
LINE
  5
5ED
100
AcDbEntity
  8
open layer
 62
256
370
-1
 48
1.0
  6
BYLAYER
100
AcDbLine
 10
7.0240487389179416
 20
115.92616900000003
 30
0.0
 11
20.7431987389176129
 21
115.92616900000003
 31
0.0
  0
LINE
  5
5EE
100
AcDbEntity
  8
open layer
 62
256
370
-1
 48
1.0
  6
BYLAYER
100
AcDbLine
 10
22.7431987389179824
 20
113.9261690000000442
 30
0.0
 11
22.7431987389179824
 21
107.92616900000003
 31
0.0
  0
LINE
  5
5EF
100
AcDbEntity
  8
open layer
 62
256
370
-1
 48
1.0
  6
BYLAYER
100
AcDbLine
 10
22.7431987389179824
 20
107.92616900000003
 30
0.0
 11
11.0240487389179336
 21
107.92616900000003
 31
0.0
  0
LINE
  5
5F0
100
AcDbEntity
  8
open layer
 62
256
370
-1
 48
1.0
  6
BYLAYER
100
AcDbLine
 10
11.0240487389179336
 20
107.92616900000003
 30
0.0
 11
11.0240487389179354
 21
11.0
 31
0.0
  0
LINE
  5
5F1
100
AcDbEntity
  8
open layer
 62
256
370
-1
 48
1.0
  6
BYLAYER
100
AcDbLine
 10
11.0240487389179354
 20
11.0
 30
0.0
 11
298.4003421389180062
 21
11.0000000000000124
 31
0.0
  0
LINE
  5
5F2
100
AcDbEntity
  8
open layer
 62
256
370
-1
 48
1.0
  6
BYLAYER
100
AcDbLine
 10
298.4003421389180062
 20
11.0000000000000124
 30
0.0
 11
298.400342138918063
 21
107.92616900000003
 31
0.0
  0
LINE
  5
5F3
100
AcDbEntity
  8
open layer
 62
256
370
-1
 48
1.0
  6
BYLAYER
100
AcDbLine
 10
298.400342138918063
 20
107.92616900000003
 30
0.0
 11
36.7431987389179824
 21
107.92616900000003
 31
0.0
  0
LINE
  5
5F4
100
AcDbEntity
  8
open layer
 62
256
370
-1
 48
1.0
  6
BYLAYER
100
AcDbLine
 10
36.7431987389179824
 20
107.92616900000003
 30
0.0
 11
36.7431987389179824
 21
113.9261690000000442
 31
0.0
  0
LINE
  5
5F5
100
AcDbEntity
  8
open layer
 62
256
370
-1
 48
1.0
  6
BYLAYER
100
AcDbLine
 10
38.7431987389209667
 20
115.92616900000003
 30
0.0
 11
302.4003421389180062
 21
115.92616900000003
 31
0.0
  0
LINE
  5
5F6
100
AcDbEntity
  8
open layer
 62
256
370
-1
 48
1.0
  6
BYLAYER
100
AcDbLine
 10
306.4003421389180062
 20
111.92616900000003
 30
0.0
 11
306.4003421389180062
 21
7.0
 31
0.0
  0
LINE
  5
5F7
100
AcDbEntity
  8
open layer
 62
256
370
-1
 48
1.0
  6
BYLAYER
100
AcDbLine
 10
302.4003421389180062
 20
3.0
 30
0.0
 11
7.0240487389179336
 21
3.0
 31
0.0
  0
LINE
  5
5F8
100
AcDbEntity
  8
open layer
 62
256
370
-1
 48
1.0
  6
BYLAYER
100
AcDbLine
 10
3.0240487389179336
 20
7.0000000000000009
 30
0.0
 11
3.0240487389179336
 21
111.9261690000000442
 31
0.0
  0
CIRCLE
  5
5F9
100
AcDbEntity
  8
open layer
 62
256
370
-1
 48
1.0
  6
BYLAYER
100
AcDbCircle
 10
7.0240487389179336
 20
111.9261690000000442
 30
0.0
 40
1.6000000000000085
  0
CIRCLE
  5
5FA
100
AcDbEntity
  8
open layer
 62
256
370
-1
 48
1.0
  6
BYLAYER
100
AcDbCircle
 10
7.0240487389179336
 20
7.0
 30
0.0
 40
1.5999999999999996
  0
CIRCLE
  5
5FB
100
AcDbEntity
  8
open layer
 62
256
370
-1
 48
1.0
  6
BYLAYER
100
AcDbCircle
 10
154.7121987389179765
 20
7.0
 30
0.0
 40
1.5999999999999943
  0
CIRCLE
  5
5FC
100
AcDbEntity
  8
open layer
 62
256
370
-1
 48
1.0
  6
BYLAYER
100
AcDbCircle
 10
302.4003421389180062
 20
7.0
 30
0.0
 40
1.6000000000000227
  0
CIRCLE
  5
5FD
100
AcDbEntity
  8
open layer
 62
256
370
-1
 48
1.0
  6
BYLAYER
100
AcDbCircle
 10
302.4003421389180062
 20
111.92616900000003
 30
0.0
 40
1.6000000000000227
  0
CIRCLE
  5
5FE
100
AcDbEntity
  8
open layer
 62
256
370
-1
 48
1.0
  6
BYLAYER
100
AcDbCircle
 10
154.7121987389179765
 20
111.9261690000000158
 30
0.0
 40
1.5999999999999943
  0
CIRCLE
  5
5FF
100
AcDbEntity
  8
open layer
 62
256
370
-1
 48
1.0
  6
BYLAYER
100
AcDbCircle
 10
40.7431987389179824
 20
111.92616900000003
 30
0.0
 40
1.2
  0
CIRCLE
  5
600
100
AcDbEntity
  8
open layer
 62
256
370
-1
 48
1.0
  6
BYLAYER
100
AcDbCircle
 10
18.7431987389179895
 20
111.9261690000000016
 30
0.0
 40
1.2
  0
ARC
  5
601
100
AcDbEntity
  8
bottom
 62
256
370
-1
 48
1.0
  6
BYLAYER
100
AcDbCircle
 10
24.7431986468380956
 20
101.5328984981934184
 30
0.0
 40
2.0
100
AcDbArc
 50
179.9826137860611368
 51
270.017386213954353
  0
ARC
  5
602
100
AcDbEntity
  8
bottom
 62
256
370
-1
 48
1.0
  6
BYLAYER
100
AcDbCircle
 10
34.7431988309978692
 20
101.5328984981934184
 30
0.0
 40
2.0
100
AcDbArc
 50
269.9826137860458175
 51
0.0173862139388716
  0
ARC
  5
603
100
AcDbEntity
  8
bottom
 62
256
370
-1
 48
1.0
  6
BYLAYER
100
AcDbCircle
 10
38.7431987389179824
 20
113.9261690000000442
 30
0.0
 40
2.0
100
AcDbArc
 50
89.9999999999145075
 51
180.0
  0
ARC
  5
604
100
AcDbEntity
  8
bottom
 62
256
370
-1
 48
1.0
  6
BYLAYER
100
AcDbCircle
 10
20.7431987389179824
 20
113.9261690000000442
 30
0.0
 40
2.0
100
AcDbArc
 50
0.0
 51
90.0000000000105871
  0
ARC
  5
605
100
AcDbEntity
  8
bottom
 62
256
370
-1
 48
1.0
  6
BYLAYER
100
AcDbCircle
 10
7.0240487389179336
 20
111.9261690000000442
 30
0.0
 40
4.0
100
AcDbArc
 50
89.9999999999998863
 51
180.0
  0
ARC
  5
606
100
AcDbEntity
  8
bottom
 62
256
370
-1
 48
1.0
  6
BYLAYER
100
AcDbCircle
 10
302.4003421389180062
 20
111.92616900000003
 30
0.0
 40
4.0
100
AcDbArc
 50
0.0
 51
90.0
  0
ARC
  5
607
100
AcDbEntity
  8
bottom
 62
256
370
-1
 48
1.0
  6
BYLAYER
100
AcDbCircle
 10
302.4003421389180062
 20
7.0
 30
0.0
 40
4.0
100
AcDbArc
 50
270.0
 51
0.0
  0
ARC
  5
608
100
AcDbEntity
  8
bottom
 62
256
370
-1
 48
1.0
  6
BYLAYER
100
AcDbCircle
 10
7.0240487389179336
 20
7.0
 30
0.0
 40
4.0
100
AcDbArc
 50
180.0
 51
270.0
  0
LINE
  5
609
100
AcDbEntity
  8
bottom
 62
256
370
-1
 48
1.0
  6
BYLAYER
100
AcDbLine
 10
7.0240487389179416
 20
115.92616900000003
 30
0.0
 11
20.7431987389176129
 21
115.92616900000003
 31
0.0
  0
LINE
  5
60A
100
AcDbEntity
  8
bottom
 62
256
370
-1
 48
1.0
  6
BYLAYER
100
AcDbLine
 10
22.7431987389179824
 20
113.9261690000000442
 30
0.0
 11
22.7431987389179824
 21
101.5328984981934184
 31
0.0
  0
LINE
  5
60B
100
AcDbEntity
  8
bottom
 62
256
370
-1
 48
1.0
  6
BYLAYER
100
AcDbLine
 10
24.7431986468380956
 20
99.5328985902733052
 30
0.0
 11
34.7425919376512695
 21
99.5328985902733052
 31
0.0
  0
LINE
  5
60C
100
AcDbEntity
  8
bottom
 62
256
370
-1
 48
1.0
  6
BYLAYER
100
AcDbLine
 10
36.7431987389179824
 20
101.5335053915400465
 30
0.0
 11
36.7431987389179824
 21
113.9261690000000442
 31
0.0
  0
LINE
  5
60D
100
AcDbEntity
  8
bottom
 62
256
370
-1
 48
1.0
  6
BYLAYER
100
AcDbLine
 10
38.7431987389209667
 20
115.92616900000003
 30
0.0
 11
302.4003421389180062
 21
115.92616900000003
 31
0.0
  0
LINE
  5
60E
100
AcDbEntity
  8
bottom
 62
256
370
-1
 48
1.0
  6
BYLAYER
100
AcDbLine
 10
306.4003421389180062
 20
111.92616900000003
 30
0.0
 11
306.4003421389180062
 21
7.0000000000000009
 31
0.0
  0
LINE
  5
60F
100
AcDbEntity
  8
bottom
 62
256
370
-1
 48
1.0
  6
BYLAYER
100
AcDbLine
 10
302.4003421389180062
 20
3.0
 30
0.0
 11
7.0240487389179336
 21
3.0
 31
0.0
  0
LINE
  5
610
100
AcDbEntity
  8
bottom
 62
256
370
-1
 48
1.0
  6
BYLAYER
100
AcDbLine
 10
3.0240487389179336
 20
7.0000000000000009
 30
0.0
 11
3.0240487389179336
 21
111.9261690000000442
 31
0.0
  0
CIRCLE
  5
611
100
AcDbEntity
  8
bottom
 62
256
370
-1
 48
1.0
  6
BYLAYER
100
AcDbCircle
 10
7.0240487389179318
 20
6.9999999999999982
 30
0.0
 40
1.2
  0
CIRCLE
  5
612
100
AcDbEntity
  8
bottom
 62
256
370
-1
 48
1.0
  6
BYLAYER
100
AcDbCircle
 10
154.7121987389179765
 20
7.0
 30
0.0
 40
1.2
  0
CIRCLE
  5
613
100
AcDbEntity
  8
bottom
 62
256
370
-1
 48
1.0
  6
BYLAYER
100
AcDbCircle
 10
302.4003421389180062
 20
7.0000000000000009
 30
0.0
 40
1.2
  0
CIRCLE
  5
614
100
AcDbEntity
  8
bottom
 62
256
370
-1
 48
1.0
  6
BYLAYER
100
AcDbCircle
 10
302.4003421389180062
 20
111.9261690000000158
 30
0.0
 40
1.2
  0
CIRCLE
  5
615
100
AcDbEntity
  8
bottom
 62
256
370
-1
 48
1.0
  6
BYLAYER
100
AcDbCircle
 10
154.7121987389179765
 20
111.9261690000000158
 30
0.0
 40
1.2
  0
CIRCLE
  5
616
100
AcDbEntity
  8
bottom
 62
256
370
-1
 48
1.0
  6
BYLAYER
100
AcDbCircle
 10
7.0240487389179425
 20
111.9261690000000016
 30
0.0
 40
1.2
  0
CIRCLE
  5
617
100
AcDbEntity
  8
bottom
 62
256
370
-1
 48
1.0
  6
BYLAYER
100
AcDbCircle
 10
18.7431987389179895
 20
111.9261690000000158
 30
0.0
 40
1.6000000000000001
  0
CIRCLE
  5
618
100
AcDbEntity
  8
bottom
 62
256
370
-1
 48
1.0
  6
BYLAYER
100
AcDbCircle
 10
40.7431987389179824
 20
111.9261690000000158
 30
0.0
 40
1.6000000000000001
  0
ARC
  5
619
100
AcDbEntity
  8
0
 62
256
370
-1
 48
1.0
  6
BYLAYER
100
AcDbCircle
 10
7.0240487389179336
 20
111.9261690000000442
 30
0.0
 40
4.0
100
AcDbArc
 50
89.9999999999998863
 51
180.0
  0
ARC
  5
61A
100
AcDbEntity
  8
0
 62
256
370
-1
 48
1.0
  6
BYLAYER
100
AcDbCircle
 10
302.4003421389180062
 20
111.92616900000003
 30
0.0
 40
4.0
100
AcDbArc
 50
0.0
 51
90.0
  0
ARC
  5
61B
100
AcDbEntity
  8
0
 62
256
370
-1
 48
1.0
  6
BYLAYER
100
AcDbCircle
 10
302.4003421389180062
 20
7.0
 30
0.0
 40
4.0
100
AcDbArc
 50
270.0
 51
0.0
  0
ARC
  5
61C
100
AcDbEntity
  8
0
 62
256
370
-1
 48
1.0
  6
BYLAYER
100
AcDbCircle
 10
7.0240487389179336
 20
7.0
 30
0.0
 40
4.0
100
AcDbArc
 50
180.0
 51
270.0
  0
LINE
  5
61D
100
AcDbEntity
  8
0
 62
256
370
-1
 48
1.0
  6
BYLAYER
100
AcDbLine
 10
3.0240487389179336
 20
111.9261690000000442
 30
0.0
 11
3.0240487389179336
 21
7.0000000000000009
 31
0.0
  0
LINE
  5
61E
100
AcDbEntity
  8
0
 62
256
370
-1
 48
1.0
  6
BYLAYER
100
AcDbLine
 10
7.0240487389179327
 20
3.0
 30
0.0
 11
302.4003421389180062
 21
3.0
 31
0.0
  0
LINE
  5
61F
100
AcDbEntity
  8
0
 62
256
370
-1
 48
1.0
  6
BYLAYER
100
AcDbLine
 10
306.4003421389180062
 20
7.0
 30
0.0
 11
306.4003421389180062
 21
111.92616900000003
 31
0.0
  0
LINE
  5
620
100
AcDbEntity
  8
0
 62
256
370
-1
 48
1.0
  6
BYLAYER
100
AcDbLine
 10
302.4003421389180062
 20
115.92616900000003
 30
0.0
 11
7.0240487389179416
 21
115.9261690000000442
 31
0.0
  0
LINE
  5
621
100
AcDbEntity
  8
building
 62
256
370
-1
 48
1.0
  6
BYLAYER
100
AcDbLine
 10
16.7424021389179316
 20
66.4639690000000058
 30
0.0
 11
16.7424021389179316
 21
64.357708405454062
 31
0.0
  0
LINE
  5
622
100
AcDbEntity
  8
building
 62
256
370
-1
 48
1.0
  6
BYLAYER
100
AcDbLine
 10
16.7424021389179316
 20
65.4634690000000035
 30
0.0
 11
15.9418021389179376
 21
65.4634690000000035
 31
0.0
  0
LINE
  5
623
100
AcDbEntity
  8
building
 62
256
370
-1
 48
1.0
  6
BYLAYER
100
AcDbLine
 10
15.9418021389179376
 20
65.4634690000000035
 30
0.0
 11
17.6204021055205402
 21
65.4634690000000035
 31
0.0
  0
ENDSEC
  0
SECTION
  2
OBJECTS
  0
DICTIONARY
  5
C
100
AcDbDictionary
280
0
281
1
  3
ACAD_GROUP
350
D
  3
ACAD_LAYOUT
350
1A
  3
ACAD_MLINESTYLE
350
17
  3
ACAD_PLOTSETTINGS
350
19
  3
ACAD_PLOTSTYLENAME
350
E
  3
AcDbVariableDictionary
350
624
  3
QCAD_OBJECTS
350
625
  0
DICTIONARY
  5
D
100
AcDbDictionary
280
0
281
1
  0
ACDBDICTIONARYWDFLT
  5
E
100
AcDbDictionary
281
1
  3
Normal
350
F
100
AcDbDictionaryWithDefault
340
F
  0
ACDBPLACEHOLDER
  5
F
  0
DICTIONARY
  5
17
100
AcDbDictionary
280
0
281
1
  3
Standard
350
18
  0
MLINESTYLE
  5
18
100
AcDbMlineStyle
  2
STANDARD
 70
0
  3

 62
256
 51
90.0
 52
90.0
 71
2
 49
0.5
 62
256
  6
BYLAYER
 49
-0.5
 62
256
  6
BYLAYER
  0
DICTIONARY
  5
19
100
AcDbDictionary
280
0
281
1
  0
DICTIONARY
  5
1A
100
AcDbDictionary
281
1
  3
Layout1
350
1E
  3
Layout2
350
26
  3
Model
350
22
  0
LAYOUT
  5
1E
100
AcDbPlotSettings
  1

  2
none_device
  4

  6

 40
0.0
 41
0.0
 42
0.0
 43
0.0
 44
0.0
 45
0.0
 46
0.0
 47
0.0
 48
0.0
 49
0.0
140
0.0
141
0.0
142
1.0
143
1.0
 70
688
 72
0
 73
0
 74
5
  7

 75
16
147
1.0
148
0.0
149
0.0
100
AcDbLayout
  1
Layout1
 70
1
 71
1
 10
0.0
 20
0.0
 11
420.0
 21
297.0
 12
0.0
 22
0.0
 32
0.0
 14
100000000000000000000.0
 24
100000000000000000000.0
 34
100000000000000000000.0
 15
-100000000000000000000.0
 25
-100000000000000000000.0
 35
-100000000000000000000.0
146
0.0
 13
0.0
 23
0.0
 33
0.0
 16
1.0
 26
0.0
 36
0.0
 17
0.0
 27
1.0
 37
0.0
 76
0
330
1B
  0
LAYOUT
  5
22
100
AcDbPlotSettings
  1

  2
none_device
  4

  6

 40
0.0
 41
0.0
 42
0.0
 43
0.0
 44
0.0
 45
0.0
 46
0.0
 47
0.0
 48
0.0
 49
0.0
140
0.0
141
0.0
142
1.0
143
1.0
 70
1712
 72
0
 73
0
 74
0
  7

 75
0
147
1.0
148
0.0
149
0.0
100
AcDbLayout
  1
Model
 70
1
 71
0
 10
0.0
 20
0.0
 11
12.0
 21
9.0
 12
0.0
 22
0.0
 32
0.0
 14
0.0
 24
0.0
 34
0.0
 15
0.0
 25
0.0
 35
0.0
146
0.0
 13
0.0
 23
0.0
 33
0.0
 16
1.0
 26
0.0
 36
0.0
 17
0.0
 27
1.0
 37
0.0
 76
0
330
1F
  0
LAYOUT
  5
26
100
AcDbPlotSettings
  1

  2
none_device
  4

  6

 40
0.0
 41
0.0
 42
0.0
 43
0.0
 44
0.0
 45
0.0
 46
0.0
 47
0.0
 48
0.0
 49
0.0
140
0.0
141
0.0
142
1.0
143
1.0
 70
688
 72
0
 73
0
 74
5
  7

 75
16
147
1.0
148
0.0
149
0.0
100
AcDbLayout
  1
Layout2
 70
1
 71
2
 10
0.0
 20
0.0
 11
12.0
 21
9.0
 12
0.0
 22
0.0
 32
0.0
 14
0.0
 24
0.0
 34
0.0
 15
0.0
 25
0.0
 35
0.0
146
0.0
 13
0.0
 23
0.0
 33
0.0
 16
1.0
 26
0.0
 36
0.0
 17
0.0
 27
1.0
 37
0.0
 76
0
330
23
  0
DICTIONARY
  5
624
100
AcDbDictionary
281
1
  3
DIMASSOC
350
627
  3
HIDETEXT
350
626
  0
DICTIONARYVAR
  5
626
100
DictionaryVariables
280
0
  1
2
  0
DICTIONARYVAR
  5
627
100
DictionaryVariables
280
0
  1
1
  0
DICTIONARY
  5
625
100
AcDbDictionary
281
1
  3
ColorSettings/BackgroundColor
350
628
  3
ColorSettings/ColorMode
350
629
  3
Grid/DisplayGrid00
350
62A
  3
Grid/DisplayGrid01
350
62B
  3
Grid/DisplayGrid02
350
62C
  3
Grid/DisplayGrid03
350
62D
  3
Grid/GridSpacingX00
350
62E
  3
Grid/GridSpacingX01
350
62F
  3
Grid/GridSpacingX02
350
630
  3
Grid/GridSpacingX03
350
631
  3
Grid/GridSpacingY00
350
632
  3
Grid/GridSpacingY01
350
633
  3
Grid/GridSpacingY02
350
634
  3
Grid/GridSpacingY03
350
635
  3
Grid/IsometricGrid00
350
636
  3
Grid/IsometricGrid01
350
637
  3
Grid/IsometricGrid02
350
638
  3
Grid/IsometricGrid03
350
639
  3
Grid/IsometricProjection00
350
63A
  3
Grid/IsometricProjection01
350
63B
  3
Grid/IsometricProjection02
350
63C
  3
Grid/IsometricProjection03
350
63D
  3
Grid/MetaGridSpacingX00
350
63E
  3
Grid/MetaGridSpacingX01
350
63F
  3
Grid/MetaGridSpacingX02
350
640
  3
Grid/MetaGridSpacingX03
350
641
  3
Grid/MetaGridSpacingY00
350
642
  3
Grid/MetaGridSpacingY01
350
643
  3
Grid/MetaGridSpacingY02
350
644
  3
Grid/MetaGridSpacingY03
350
645
  3
MultiPageSettings/Columns
350
646
  3
MultiPageSettings/GlueMarginsBottom
350
647
  3
MultiPageSettings/GlueMarginsLeft
350
648
  3
MultiPageSettings/GlueMarginsRight
350
649
  3
MultiPageSettings/GlueMarginsTop
350
64A
  3
MultiPageSettings/PrintCropMarks
350
64B
  3
MultiPageSettings/Rows
350
64C
  3
PageSettings/OffsetX
350
64D
  3
PageSettings/OffsetY
350
64E
  3
PageSettings/PageOrientation
350
64F
  3
PageSettings/PaperHeight
350
650
  3
PageSettings/PaperWidth
350
651
  3
PageSettings/Scale
350
652
  3
PageSettings/ShowPaperBorders
350
653
  3
QCADVersion
350
654
  3
UnitSettings/PaperUnit
350
655
  3
ViewportCenter
350
656
  3
ViewportHeight
350
657
  3
ViewportWidth
350
658
  0
XRECORD
  5
628
330
625
100
AcDbXrecord
280
1
1000
White
  0
XRECORD
  5
629
330
625
100
AcDbXrecord
280
1
1000
FullColor
  0
XRECORD
  5
62A
330
625
100
AcDbXrecord
280
1
290
1
  0
XRECORD
  5
62B
330
625
100
AcDbXrecord
280
1
290
1
  0
XRECORD
  5
62C
330
625
100
AcDbXrecord
280
1
290
1
  0
XRECORD
  5
62D
330
625
100
AcDbXrecord
280
1
290
1
  0
XRECORD
  5
62E
330
625
100
AcDbXrecord
280
1
1000
auto
  0
XRECORD
  5
62F
330
625
100
AcDbXrecord
280
1
1000
auto
  0
XRECORD
  5
630
330
625
100
AcDbXrecord
280
1
1000
auto
  0
XRECORD
  5
631
330
625
100
AcDbXrecord
280
1
1000
auto
  0
XRECORD
  5
632
330
625
100
AcDbXrecord
280
1
1000
auto
  0
XRECORD
  5
633
330
625
100
AcDbXrecord
280
1
1000
auto
  0
XRECORD
  5
634
330
625
100
AcDbXrecord
280
1
1000
auto
  0
XRECORD
  5
635
330
625
100
AcDbXrecord
280
1
1000
auto
  0
XRECORD
  5
636
330
625
100
AcDbXrecord
280
1
290
0
  0
XRECORD
  5
637
330
625
100
AcDbXrecord
280
1
290
0
  0
XRECORD
  5
638
330
625
100
AcDbXrecord
280
1
290
0
  0
XRECORD
  5
639
330
625
100
AcDbXrecord
280
1
290
0
  0
XRECORD
  5
63A
330
625
100
AcDbXrecord
280
1
 90
0
  0
XRECORD
  5
63B
330
625
100
AcDbXrecord
280
1
 90
0
  0
XRECORD
  5
63C
330
625
100
AcDbXrecord
280
1
 90
0
  0
XRECORD
  5
63D
330
625
100
AcDbXrecord
280
1
 90
0
  0
XRECORD
  5
63E
330
625
100
AcDbXrecord
280
1
1000
auto
  0
XRECORD
  5
63F
330
625
100
AcDbXrecord
280
1
1000
auto
  0
XRECORD
  5
640
330
625
100
AcDbXrecord
280
1
1000
auto
  0
XRECORD
  5
641
330
625
100
AcDbXrecord
280
1
1000
auto
  0
XRECORD
  5
642
330
625
100
AcDbXrecord
280
1
1000
auto
  0
XRECORD
  5
643
330
625
100
AcDbXrecord
280
1
1000
auto
  0
XRECORD
  5
644
330
625
100
AcDbXrecord
280
1
1000
auto
  0
XRECORD
  5
645
330
625
100
AcDbXrecord
280
1
1000
auto
  0
XRECORD
  5
646
330
625
100
AcDbXrecord
280
1
 90
1
  0
XRECORD
  5
647
330
625
100
AcDbXrecord
280
1
 40
10.0
  0
XRECORD
  5
648
330
625
100
AcDbXrecord
280
1
 40
10.0
  0
XRECORD
  5
649
330
625
100
AcDbXrecord
280
1
 40
10.0
  0
XRECORD
  5
64A
330
625
100
AcDbXrecord
280
1
 40
10.0
  0
XRECORD
  5
64B
330
625
100
AcDbXrecord
280
1
290
0
  0
XRECORD
  5
64C
330
625
100
AcDbXrecord
280
1
 90
1
  0
XRECORD
  5
64D
330
625
100
AcDbXrecord
280
1
 40
-18.8484163533613227
  0
XRECORD
  5
64E
330
625
100
AcDbXrecord
280
1
 40
-66.2249872441773419
  0
XRECORD
  5
64F
330
625
100
AcDbXrecord
280
1
1000
Landscape
  0
XRECORD
  5
650
330
625
100
AcDbXrecord
280
1
 40
297.0
  0
XRECORD
  5
651
330
625
100
AcDbXrecord
280
1
 40
210.0
  0
XRECORD
  5
652
330
625
100
AcDbXrecord
280
1
1000
1:1
  0
XRECORD
  5
653
330
625
100
AcDbXrecord
280
1
290
1
  0
XRECORD
  5
654
330
625
100
AcDbXrecord
280
1
1000
3.16.3.1
  0
XRECORD
  5
655
330
625
100
AcDbXrecord
280
1
 90
4
  0
XRECORD
  5
657
330
625
100
AcDbXrecord
280
1
 40
123.6748859758813097
  0
XRECORD
  5
658
330
625
100
AcDbXrecord
280
1
 40
463.2033929758814566
  0
ENDSEC
  0
EOF
