  0
SECTION
  2
HEADER
  9
$ACADVER
  1
AC1009
  9
$EXTMIN
 10
0.0
 20
0.0
 30
0.0
  9
$EXTMAX
 10
1000.0
 20
1000.0
 30
0.0
  9
$FILLMODE
 70
 0
  9
$SPLFRAME
 70
 1
  0
ENDSEC
  0
SECTION
  2
TABLES
  0
TABLE
  2
LAYER
 70
1
  0
LAYER
  2
0
 70
     0
 62
     7
  6
CONTINUOUS
  0
ENDTAB
  0
ENDSEC
  0
SECTION
  2
ENTITIES
  0
LINE
  8
0
 62
     0
 10
283.471
 20
95.0239
 30
0.0
 11
283.626
 21
95.0186
 31
0.0
  0
LINE
  8
0
 62
     0
 10
283.626
 20
95.0186
 30
0.0
 11
283.782
 21
95.0006
 31
0.0
  0
LINE
  8
0
 62
     0
 10
283.782
 20
95.0006
 30
0.0
 11
283.936
 21
94.9688
 31
0.0
  0
LINE
  8
0
 62
     0
 10
283.936
 20
94.9688
 30
0.0
 11
284.089
 21
94.9276
 31
0.0
  0
LINE
  8
0
 62
     0
 10
284.089
 20
94.9276
 30
0.0
 11
284.236
 21
94.8725
 31
0.0
  0
LINE
  8
0
 62
     0
 10
284.236
 20
94.8725
 30
0.0
 11
284.377
 21
94.8076
 31
0.0
  0
LINE
  8
0
 62
     0
 10
284.377
 20
94.8076
 30
0.0
 11
284.514
 21
94.7304
 31
0.0
  0
LINE
  8
0
 62
     0
 10
284.514
 20
94.7304
 30
0.0
 11
284.645
 21
94.6436
 31
0.0
  0
LINE
  8
0
 62
     0
 10
284.645
 20
94.6436
 30
0.0
 11
284.769
 21
94.5444
 31
0.0
  0
LINE
  8
0
 62
     0
 10
284.769
 20
94.5444
 30
0.0
 11
284.885
 21
94.4397
 31
0.0
  0
LINE
  8
0
 62
     0
 10
284.885
 20
94.4397
 30
0.0
 11
284.991
 21
94.3225
 31
0.0
  0
LINE
  8
0
 62
     0
 10
284.991
 20
94.3225
 30
0.0
 11
285.09
 21
94.1998
 31
0.0
  0
LINE
  8
0
 62
     0
 10
285.09
 20
94.1998
 30
0.0
 11
285.175
 21
94.0689
 31
0.0
  0
LINE
  8
0
 62
     0
 10
285.175
 20
94.0689
 30
0.0
 11
285.253
 21
93.9327
 31
0.0
  0
LINE
  8
0
 62
     0
 10
285.253
 20
93.9327
 30
0.0
 11
285.317
 21
93.7906
 31
0.0
  0
LINE
  8
0
 62
     0
 10
285.317
 20
93.7906
 30
0.0
 11
285.373
 21
93.6431
 31
0.0
  0
LINE
  8
0
 62
     0
 10
285.373
 20
93.6431
 30
0.0
 11
285.414
 21
93.4918
 31
0.0
  0
LINE
  8
0
 62
     0
 10
285.414
 20
93.4918
 30
0.0
 11
285.446
 21
93.3372
 31
0.0
  0
LINE
  8
0
 62
     0
 10
285.446
 20
93.3372
 30
0.0
 11
285.465
 21
93.1817
 31
0.0
  0
LINE
  8
0
 62
     0
 10
285.465
 20
93.1817
 30
0.0
 11
285.47
 21
93.0243
 31
0.0
  0
LINE
  8
0
 62
     0
 10
285.47
 20
93.0243
 30
0.0
 11
285.47
 21
40.8615
 31
0.0
  0
LINE
  8
0
 62
     0
 10
285.47
 20
40.8615
 30
0.0
 11
281.969
 21
40.8615
 31
0.0
  0
LINE
  8
0
 62
     0
 10
281.969
 20
40.8615
 30
0.0
 11
281.196
 21
40.7388
 31
0.0
  0
LINE
  8
0
 62
     0
 10
281.196
 20
40.7388
 30
0.0
 11
280.5
 21
40.3849
 31
0.0
  0
LINE
  8
0
 62
     0
 10
280.5
 20
40.3849
 30
0.0
 11
279.947
 21
39.8307
 31
0.0
  0
LINE
  8
0
 62
     0
 10
279.947
 20
39.8307
 30
0.0
 11
279.593
 21
39.1336
 31
0.0
  0
LINE
  8
0
 62
     0
 10
279.593
 20
39.1336
 30
0.0
 11
279.47
 21
38.3618
 31
0.0
  0
LINE
  8
0
 62
     0
 10
279.47
 20
38.3618
 30
0.0
 11
279.47
 21
38.3603
 31
0.0
  0
LINE
  8
0
 62
     0
 10
279.47
 20
38.3603
 30
0.0
 11
279.593
 21
37.5888
 31
0.0
  0
LINE
  8
0
 62
     0
 10
279.593
 20
37.5888
 30
0.0
 11
279.947
 21
36.8914
 31
0.0
  0
LINE
  8
0
 62
     0
 10
279.947
 20
36.8914
 30
0.0
 11
280.5
 21
36.3375
 31
0.0
  0
LINE
  8
0
 62
     0
 10
280.5
 20
36.3375
 30
0.0
 11
281.196
 21
35.9833
 31
0.0
  0
LINE
  8
0
 62
     0
 10
281.196
 20
35.9833
 30
0.0
 11
281.969
 21
35.8606
 31
0.0
  0
LINE
  8
0
 62
     0
 10
281.969
 20
35.8606
 30
0.0
 11
285.47
 21
35.8606
 31
0.0
  0
LINE
  8
0
 62
     0
 10
285.47
 20
35.8606
 30
0.0
 11
285.47
 21
2.09737
 31
0.0
  0
LINE
  8
0
 62
     0
 10
285.47
 20
2.09737
 30
0.0
 11
285.465
 21
1.94166
 31
0.0
  0
LINE
  8
0
 62
     0
 10
285.465
 20
1.94166
 30
0.0
 11
285.446
 21
1.78594
 31
0.0
  0
LINE
  8
0
 62
     0
 10
285.446
 20
1.78594
 30
0.0
 11
285.414
 21
1.6316
 31
0.0
  0
LINE
  8
0
 62
     0
 10
285.414
 20
1.6316
 30
0.0
 11
285.373
 21
1.48001
 31
0.0
  0
LINE
  8
0
 62
     0
 10
285.373
 20
1.48001
 30
0.0
 11
285.317
 21
1.33256
 31
0.0
  0
LINE
  8
0
 62
     0
 10
285.317
 20
1.33256
 30
0.0
 11
285.253
 21
1.19063
 31
0.0
  0
LINE
  8
0
 62
     0
 10
285.253
 20
1.19063
 30
0.0
 11
285.175
 21
1.0542
 31
0.0
  0
LINE
  8
0
 62
     0
 10
285.175
 20
1.0542
 30
0.0
 11
285.09
 21
0.923286
 31
0.0
  0
LINE
  8
0
 62
     0
 10
285.09
 20
0.923286
 30
0.0
 11
284.991
 21
0.799264
 31
0.0
  0
LINE
  8
0
 62
     0
 10
284.991
 20
0.799264
 30
0.0
 11
284.885
 21
0.683507
 31
0.0
  0
LINE
  8
0
 62
     0
 10
284.885
 20
0.683507
 30
0.0
 11
284.769
 21
0.578778
 31
0.0
  0
LINE
  8
0
 62
     0
 10
284.769
 20
0.578778
 30
0.0
 11
284.645
 21
0.479559
 31
0.0
  0
LINE
  8
0
 62
     0
 10
284.645
 20
0.479559
 30
0.0
 11
284.514
 21
0.39274
 31
0.0
  0
LINE
  8
0
 62
     0
 10
284.514
 20
0.39274
 30
0.0
 11
284.377
 21
0.315571
 31
0.0
  0
LINE
  8
0
 62
     0
 10
284.377
 20
0.315571
 30
0.0
 11
284.236
 21
0.250803
 31
0.0
  0
LINE
  8
0
 62
     0
 10
284.236
 20
0.250803
 30
0.0
 11
284.089
 21
0.195682
 31
0.0
  0
LINE
  8
0
 62
     0
 10
284.089
 20
0.195682
 30
0.0
 11
283.936
 21
0.152962
 31
0.0
  0
LINE
  8
0
 62
     0
 10
283.936
 20
0.152962
 30
0.0
 11
283.782
 21
0.122645
 31
0.0
  0
LINE
  8
0
 62
     0
 10
283.782
 20
0.122645
 30
0.0
 11
283.626
 21
0.104731
 31
0.0
  0
LINE
  8
0
 62
     0
 10
283.626
 20
0.104731
 30
0.0
 11
283.471
 21
0.0992188
 31
0.0
  0
LINE
  8
0
 62
     0
 10
283.471
 20
0.0992188
 30
0.0
 11
2.09462
 21
0.0964629
 31
0.0
  0
LINE
  8
0
 62
     0
 10
2.09462
 20
0.0964629
 30
0.0
 11
1.93752
 21
0.104731
 31
0.0
  0
LINE
  8
0
 62
     0
 10
1.93752
 20
0.104731
 30
0.0
 11
1.7818
 21
0.122645
 31
0.0
  0
LINE
  8
0
 62
     0
 10
1.7818
 20
0.122645
 30
0.0
 11
1.62746
 21
0.152962
 31
0.0
  0
LINE
  8
0
 62
     0
 10
1.62746
 20
0.152962
 30
0.0
 11
1.47588
 21
0.195682
 31
0.0
  0
LINE
  8
0
 62
     0
 10
1.47588
 20
0.195682
 30
0.0
 11
1.32843
 21
0.250803
 31
0.0
  0
LINE
  8
0
 62
     0
 10
1.32843
 20
0.250803
 30
0.0
 11
1.18649
 21
0.315571
 31
0.0
  0
LINE
  8
0
 62
     0
 10
1.18649
 20
0.315571
 30
0.0
 11
1.04869
 21
0.39274
 31
0.0
  0
LINE
  8
0
 62
     0
 10
1.04869
 20
0.39274
 30
0.0
 11
0.917773
 21
0.479559
 31
0.0
  0
LINE
  8
0
 62
     0
 10
0.917773
 20
0.479559
 30
0.0
 11
0.795129
 21
0.578778
 31
0.0
  0
LINE
  8
0
 62
     0
 10
0.795129
 20
0.578778
 30
0.0
 11
0.679372
 21
0.683507
 31
0.0
  0
LINE
  8
0
 62
     0
 10
0.679372
 20
0.683507
 30
0.0
 11
0.573264
 21
0.799264
 31
0.0
  0
LINE
  8
0
 62
     0
 10
0.573264
 20
0.799264
 30
0.0
 11
0.475424
 21
0.923286
 31
0.0
  0
LINE
  8
0
 62
     0
 10
0.475424
 20
0.923286
 30
0.0
 11
0.388606
 21
1.0542
 31
0.0
  0
LINE
  8
0
 62
     0
 10
0.388606
 20
1.0542
 30
0.0
 11
0.311437
 21
1.19063
 31
0.0
  0
LINE
  8
0
 62
     0
 10
0.311437
 20
1.19063
 30
0.0
 11
0.246669
 21
1.33256
 31
0.0
  0
LINE
  8
0
 62
     0
 10
0.246669
 20
1.33256
 30
0.0
 11
0.191547
 21
1.48001
 31
0.0
  0
LINE
  8
0
 62
     0
 10
0.191547
 20
1.48001
 30
0.0
 11
0.148828
 21
1.6316
 31
0.0
  0
LINE
  8
0
 62
     0
 10
0.148828
 20
1.6316
 30
0.0
 11
0.118511
 21
1.78594
 31
0.0
  0
LINE
  8
0
 62
     0
 10
0.118511
 20
1.78594
 30
0.0
 11
0.100597
 21
1.94166
 31
0.0
  0
LINE
  8
0
 62
     0
 10
0.100597
 20
1.94166
 30
0.0
 11
0.0937066
 21
2.09737
 31
0.0
  0
LINE
  8
0
 62
     0
 10
0.0937066
 20
2.09737
 30
0.0
 11
0.0937066
 21
35.8606
 31
0.0
  0
LINE
  8
0
 62
     0
 10
0.0937066
 20
35.8606
 30
0.0
 11
3.59392
 21
35.8606
 31
0.0
  0
LINE
  8
0
 62
     0
 10
3.59392
 20
35.8606
 30
0.0
 11
4.367
 21
35.9833
 31
0.0
  0
LINE
  8
0
 62
     0
 10
4.367
 20
35.9833
 30
0.0
 11
5.06293
 21
36.3375
 31
0.0
  0
LINE
  8
0
 62
     0
 10
5.06293
 20
36.3375
 30
0.0
 11
5.61689
 21
36.8914
 31
0.0
  0
LINE
  8
0
 62
     0
 10
5.61689
 20
36.8914
 30
0.0
 11
5.97242
 21
37.5888
 31
0.0
  0
LINE
  8
0
 62
     0
 10
5.97242
 20
37.5888
 30
0.0
 11
6.09367
 21
38.3603
 31
0.0
  0
LINE
  8
0
 62
     0
 10
6.09367
 20
38.3603
 30
0.0
 11
6.09367
 21
38.3618
 31
0.0
  0
LINE
  8
0
 62
     0
 10
6.09367
 20
38.3618
 30
0.0
 11
5.97242
 21
39.1336
 31
0.0
  0
LINE
  8
0
 62
     0
 10
5.97242
 20
39.1336
 30
0.0
 11
5.61689
 21
39.8307
 31
0.0
  0
LINE
  8
0
 62
     0
 10
5.61689
 20
39.8307
 30
0.0
 11
5.06293
 21
40.3849
 31
0.0
  0
LINE
  8
0
 62
     0
 10
5.06293
 20
40.3849
 30
0.0
 11
4.367
 21
40.7388
 31
0.0
  0
LINE
  8
0
 62
     0
 10
4.367
 20
40.7388
 30
0.0
 11
3.5953
 21
40.8615
 31
0.0
  0
LINE
  8
0
 62
     0
 10
3.5953
 20
40.8615
 30
0.0
 11
0.0937066
 21
40.8615
 31
0.0
  0
LINE
  8
0
 62
     0
 10
0.0937066
 20
40.8615
 30
0.0
 11
0.0937066
 21
93.0243
 31
0.0
  0
LINE
  8
0
 62
     0
 10
0.0937066
 20
93.0243
 30
0.0
 11
0.100597
 21
93.1817
 31
0.0
  0
LINE
  8
0
 62
     0
 10
0.100597
 20
93.1817
 30
0.0
 11
0.118511
 21
93.3372
 31
0.0
  0
LINE
  8
0
 62
     0
 10
0.118511
 20
93.3372
 30
0.0
 11
0.148828
 21
93.4918
 31
0.0
  0
LINE
  8
0
 62
     0
 10
0.148828
 20
93.4918
 30
0.0
 11
0.191547
 21
93.6431
 31
0.0
  0
LINE
  8
0
 62
     0
 10
0.191547
 20
93.6431
 30
0.0
 11
0.246669
 21
93.7906
 31
0.0
  0
LINE
  8
0
 62
     0
 10
0.246669
 20
93.7906
 30
0.0
 11
0.311437
 21
93.9327
 31
0.0
  0
LINE
  8
0
 62
     0
 10
0.311437
 20
93.9327
 30
0.0
 11
0.388606
 21
94.0689
 31
0.0
  0
LINE
  8
0
 62
     0
 10
0.388606
 20
94.0689
 30
0.0
 11
0.475424
 21
94.1998
 31
0.0
  0
LINE
  8
0
 62
     0
 10
0.475424
 20
94.1998
 30
0.0
 11
0.573264
 21
94.3225
 31
0.0
  0
LINE
  8
0
 62
     0
 10
0.573264
 20
94.3225
 30
0.0
 11
0.679372
 21
94.4397
 31
0.0
  0
LINE
  8
0
 62
     0
 10
0.679372
 20
94.4397
 30
0.0
 11
0.795129
 21
94.5444
 31
0.0
  0
LINE
  8
0
 62
     0
 10
0.795129
 20
94.5444
 30
0.0
 11
0.917773
 21
94.6436
 31
0.0
  0
LINE
  8
0
 62
     0
 10
0.917773
 20
94.6436
 30
0.0
 11
1.04869
 21
94.7304
 31
0.0
  0
LINE
  8
0
 62
     0
 10
1.04869
 20
94.7304
 30
0.0
 11
1.18649
 21
94.8076
 31
0.0
  0
LINE
  8
0
 62
     0
 10
1.18649
 20
94.8076
 30
0.0
 11
1.32843
 21
94.8725
 31
0.0
  0
LINE
  8
0
 62
     0
 10
1.32843
 20
94.8725
 30
0.0
 11
1.47588
 21
94.9276
 31
0.0
  0
LINE
  8
0
 62
     0
 10
1.47588
 20
94.9276
 30
0.0
 11
1.62746
 21
94.9688
 31
0.0
  0
LINE
  8
0
 62
     0
 10
1.62746
 20
94.9688
 30
0.0
 11
1.7818
 21
95.0006
 31
0.0
  0
LINE
  8
0
 62
     0
 10
1.7818
 20
95.0006
 30
0.0
 11
1.93752
 21
95.0186
 31
0.0
  0
LINE
  8
0
 62
     0
 10
1.93752
 20
95.0186
 30
0.0
 11
2.09462
 21
95.0253
 31
0.0
  0
LINE
  8
0
 62
     0
 10
2.09462
 20
95.0253
 30
0.0
 11
283.471
 21
95.0239
 31
0.0
  0
LINE
  8
0
 62
     0
 10
133.401
 20
16.4621
 30
0.0
 11
133.401
 21
15.4616
 31
0.0
  0
LINE
  8
0
 62
     0
 10
133.401
 20
15.4616
 30
0.0
 11
132.602
 21
15.4616
 31
0.0
  0
LINE
  8
0
 62
     0
 10
132.602
 20
15.4616
 30
0.0
 11
132.602
 21
12.361
 31
0.0
  0
LINE
  8
0
 62
     0
 10
132.602
 20
12.361
 30
0.0
 11
133.401
 21
12.361
 31
0.0
  0
LINE
  8
0
 62
     0
 10
133.401
 20
12.361
 30
0.0
 11
133.401
 21
11.7615
 31
0.0
  0
LINE
  8
0
 62
     0
 10
133.401
 20
11.7615
 30
0.0
 11
93.7768
 21
11.7615
 31
0.0
  0
LINE
  8
0
 62
     0
 10
93.7768
 20
11.7615
 30
0.0
 11
93.7768
 21
14.9917
 31
0.0
  0
LINE
  8
0
 62
     0
 10
93.7768
 20
14.9917
 30
0.0
 11
87.026
 21
14.9917
 31
0.0
  0
LINE
  8
0
 62
     0
 10
87.026
 20
14.9917
 30
0.0
 11
87.026
 21
11.7615
 31
0.0
  0
LINE
  8
0
 62
     0
 10
87.026
 20
11.7615
 30
0.0
 11
86.2005
 21
11.7615
 31
0.0
  0
LINE
  8
0
 62
     0
 10
86.2005
 20
11.7615
 30
0.0
 11
86.2005
 21
8.96278
 31
0.0
  0
LINE
  8
0
 62
     0
 10
86.2005
 20
8.96278
 30
0.0
 11
87.026
 21
8.96278
 31
0.0
  0
LINE
  8
0
 62
     0
 10
87.026
 20
8.96278
 30
0.0
 11
87.026
 21
2.69269
 31
0.0
  0
LINE
  8
0
 62
     0
 10
87.026
 20
2.69269
 30
0.0
 11
88.7511
 21
2.69269
 31
0.0
  0
LINE
  8
0
 62
     0
 10
88.7511
 20
2.69269
 30
0.0
 11
88.7511
 21
1.49242
 31
0.0
  0
LINE
  8
0
 62
     0
 10
88.7511
 20
1.49242
 30
0.0
 11
92.0517
 21
1.49242
 31
0.0
  0
LINE
  8
0
 62
     0
 10
92.0517
 20
1.49242
 30
0.0
 11
92.0517
 21
2.69269
 31
0.0
  0
LINE
  8
0
 62
     0
 10
92.0517
 20
2.69269
 30
0.0
 11
93.7768
 21
2.69269
 31
0.0
  0
LINE
  8
0
 62
     0
 10
93.7768
 20
2.69269
 30
0.0
 11
93.7768
 21
7.16167
 31
0.0
  0
LINE
  8
0
 62
     0
 10
93.7768
 20
7.16167
 30
0.0
 11
133.401
 21
7.16167
 31
0.0
  0
LINE
  8
0
 62
     0
 10
133.401
 20
7.16167
 30
0.0
 11
133.401
 21
6.56086
 31
0.0
  0
LINE
  8
0
 62
     0
 10
133.401
 20
6.56086
 30
0.0
 11
132.602
 21
6.56086
 31
0.0
  0
LINE
  8
0
 62
     0
 10
132.602
 20
6.56086
 30
0.0
 11
132.602
 21
3.46163
 31
0.0
  0
LINE
  8
0
 62
     0
 10
132.602
 20
3.46163
 30
0.0
 11
133.401
 21
3.46163
 31
0.0
  0
LINE
  8
0
 62
     0
 10
133.401
 20
3.46163
 30
0.0
 11
133.401
 21
2.46255
 31
0.0
  0
LINE
  8
0
 62
     0
 10
133.401
 20
2.46255
 30
0.0
 11
147.402
 21
2.46255
 31
0.0
  0
LINE
  8
0
 62
     0
 10
147.402
 20
2.46255
 30
0.0
 11
147.402
 21
3.46163
 31
0.0
  0
LINE
  8
0
 62
     0
 10
147.402
 20
3.46163
 30
0.0
 11
148.2
 21
3.46163
 31
0.0
  0
LINE
  8
0
 62
     0
 10
148.2
 20
3.46163
 30
0.0
 11
148.2
 21
6.56086
 31
0.0
  0
LINE
  8
0
 62
     0
 10
148.2
 20
6.56086
 30
0.0
 11
147.402
 21
6.56086
 31
0.0
  0
LINE
  8
0
 62
     0
 10
147.402
 20
6.56086
 30
0.0
 11
147.402
 21
7.16167
 31
0.0
  0
LINE
  8
0
 62
     0
 10
147.402
 20
7.16167
 30
0.0
 11
187.026
 21
7.16167
 31
0.0
  0
LINE
  8
0
 62
     0
 10
187.026
 20
7.16167
 30
0.0
 11
187.026
 21
2.69269
 31
0.0
  0
LINE
  8
0
 62
     0
 10
187.026
 20
2.69269
 30
0.0
 11
188.751
 21
2.69269
 31
0.0
  0
LINE
  8
0
 62
     0
 10
188.751
 20
2.69269
 30
0.0
 11
188.751
 21
1.49242
 31
0.0
  0
LINE
  8
0
 62
     0
 10
188.751
 20
1.49242
 30
0.0
 11
192.05
 21
1.49242
 31
0.0
  0
LINE
  8
0
 62
     0
 10
192.05
 20
1.49242
 30
0.0
 11
192.05
 21
2.69269
 31
0.0
  0
LINE
  8
0
 62
     0
 10
192.05
 20
2.69269
 30
0.0
 11
193.776
 21
2.69269
 31
0.0
  0
LINE
  8
0
 62
     0
 10
193.776
 20
2.69269
 30
0.0
 11
193.776
 21
8.96278
 31
0.0
  0
LINE
  8
0
 62
     0
 10
193.776
 20
8.96278
 30
0.0
 11
194.601
 21
8.96278
 31
0.0
  0
LINE
  8
0
 62
     0
 10
194.601
 20
8.96278
 30
0.0
 11
194.601
 21
11.7615
 31
0.0
  0
LINE
  8
0
 62
     0
 10
194.601
 20
11.7615
 30
0.0
 11
193.776
 21
11.7615
 31
0.0
  0
LINE
  8
0
 62
     0
 10
193.776
 20
11.7615
 30
0.0
 11
193.776
 21
14.9917
 31
0.0
  0
LINE
  8
0
 62
     0
 10
193.776
 20
14.9917
 30
0.0
 11
187.026
 21
14.9917
 31
0.0
  0
LINE
  8
0
 62
     0
 10
187.026
 20
14.9917
 30
0.0
 11
187.026
 21
11.7615
 31
0.0
  0
LINE
  8
0
 62
     0
 10
187.026
 20
11.7615
 30
0.0
 11
147.402
 21
11.7615
 31
0.0
  0
LINE
  8
0
 62
     0
 10
147.402
 20
11.7615
 30
0.0
 11
147.402
 21
12.361
 31
0.0
  0
LINE
  8
0
 62
     0
 10
147.402
 20
12.361
 30
0.0
 11
148.2
 21
12.361
 31
0.0
  0
LINE
  8
0
 62
     0
 10
148.2
 20
12.361
 30
0.0
 11
148.2
 21
15.4616
 31
0.0
  0
LINE
  8
0
 62
     0
 10
148.2
 20
15.4616
 30
0.0
 11
147.402
 21
15.4616
 31
0.0
  0
LINE
  8
0
 62
     0
 10
147.402
 20
15.4616
 30
0.0
 11
147.402
 21
16.4621
 31
0.0
  0
LINE
  8
0
 62
     0
 10
147.402
 20
16.4621
 30
0.0
 11
133.401
 21
16.4621
 31
0.0
  0
LINE
  8
0
 62
     0
 10
35.7699
 20
16.4621
 30
0.0
 11
35.7699
 21
15.4616
 31
0.0
  0
LINE
  8
0
 62
     0
 10
35.7699
 20
15.4616
 30
0.0
 11
34.9691
 21
15.4616
 31
0.0
  0
LINE
  8
0
 62
     0
 10
34.9691
 20
15.4616
 30
0.0
 11
34.9691
 21
12.361
 31
0.0
  0
LINE
  8
0
 62
     0
 10
34.9691
 20
12.361
 30
0.0
 11
35.7699
 21
12.361
 31
0.0
  0
LINE
  8
0
 62
     0
 10
35.7699
 20
12.361
 30
0.0
 11
35.7699
 21
6.56086
 31
0.0
  0
LINE
  8
0
 62
     0
 10
35.7699
 20
6.56086
 30
0.0
 11
34.9691
 21
6.56086
 31
0.0
  0
LINE
  8
0
 62
     0
 10
34.9691
 20
6.56086
 30
0.0
 11
34.9691
 21
3.46163
 31
0.0
  0
LINE
  8
0
 62
     0
 10
34.9691
 20
3.46163
 30
0.0
 11
35.7699
 21
3.46163
 31
0.0
  0
LINE
  8
0
 62
     0
 10
35.7699
 20
3.46163
 30
0.0
 11
35.7699
 21
2.46255
 31
0.0
  0
LINE
  8
0
 62
     0
 10
35.7699
 20
2.46255
 30
0.0
 11
49.7692
 21
2.46255
 31
0.0
  0
LINE
  8
0
 62
     0
 10
49.7692
 20
2.46255
 30
0.0
 11
49.7692
 21
3.46163
 31
0.0
  0
LINE
  8
0
 62
     0
 10
49.7692
 20
3.46163
 30
0.0
 11
50.5686
 21
3.46163
 31
0.0
  0
LINE
  8
0
 62
     0
 10
50.5686
 20
3.46163
 30
0.0
 11
50.5686
 21
6.56086
 31
0.0
  0
LINE
  8
0
 62
     0
 10
50.5686
 20
6.56086
 30
0.0
 11
49.7692
 21
6.56086
 31
0.0
  0
LINE
  8
0
 62
     0
 10
49.7692
 20
6.56086
 30
0.0
 11
49.7692
 21
12.361
 31
0.0
  0
LINE
  8
0
 62
     0
 10
49.7692
 20
12.361
 30
0.0
 11
50.5686
 21
12.361
 31
0.0
  0
LINE
  8
0
 62
     0
 10
50.5686
 20
12.361
 30
0.0
 11
50.5686
 21
15.4616
 31
0.0
  0
LINE
  8
0
 62
     0
 10
50.5686
 20
15.4616
 30
0.0
 11
49.7692
 21
15.4616
 31
0.0
  0
LINE
  8
0
 62
     0
 10
49.7692
 20
15.4616
 30
0.0
 11
49.7692
 21
16.4621
 31
0.0
  0
LINE
  8
0
 62
     0
 10
49.7692
 20
16.4621
 30
0.0
 11
35.7699
 21
16.4621
 31
0.0
  0
LINE
  8
0
 62
     0
 10
59.581
 20
16.4621
 30
0.0
 11
59.581
 21
15.4616
 31
0.0
  0
LINE
  8
0
 62
     0
 10
59.581
 20
15.4616
 30
0.0
 11
58.7816
 21
15.4616
 31
0.0
  0
LINE
  8
0
 62
     0
 10
58.7816
 20
15.4616
 30
0.0
 11
58.7816
 21
12.361
 31
0.0
  0
LINE
  8
0
 62
     0
 10
58.7816
 20
12.361
 30
0.0
 11
59.581
 21
12.361
 31
0.0
  0
LINE
  8
0
 62
     0
 10
59.581
 20
12.361
 30
0.0
 11
59.581
 21
6.56086
 31
0.0
  0
LINE
  8
0
 62
     0
 10
59.581
 20
6.56086
 30
0.0
 11
58.7816
 21
6.56086
 31
0.0
  0
LINE
  8
0
 62
     0
 10
58.7816
 20
6.56086
 30
0.0
 11
58.7816
 21
3.46163
 31
0.0
  0
LINE
  8
0
 62
     0
 10
58.7816
 20
3.46163
 30
0.0
 11
59.581
 21
3.46163
 31
0.0
  0
LINE
  8
0
 62
     0
 10
59.581
 20
3.46163
 30
0.0
 11
59.581
 21
2.46255
 31
0.0
  0
LINE
  8
0
 62
     0
 10
59.581
 20
2.46255
 30
0.0
 11
73.5817
 21
2.46255
 31
0.0
  0
LINE
  8
0
 62
     0
 10
73.5817
 20
2.46255
 30
0.0
 11
73.5817
 21
3.46163
 31
0.0
  0
LINE
  8
0
 62
     0
 10
73.5817
 20
3.46163
 30
0.0
 11
74.3825
 21
3.46163
 31
0.0
  0
LINE
  8
0
 62
     0
 10
74.3825
 20
3.46163
 30
0.0
 11
74.3825
 21
6.56086
 31
0.0
  0
LINE
  8
0
 62
     0
 10
74.3825
 20
6.56086
 30
0.0
 11
73.5817
 21
6.56086
 31
0.0
  0
LINE
  8
0
 62
     0
 10
73.5817
 20
6.56086
 30
0.0
 11
73.5817
 21
12.361
 31
0.0
  0
LINE
  8
0
 62
     0
 10
73.5817
 20
12.361
 30
0.0
 11
74.3825
 21
12.361
 31
0.0
  0
LINE
  8
0
 62
     0
 10
74.3825
 20
12.361
 30
0.0
 11
74.3825
 21
15.4616
 31
0.0
  0
LINE
  8
0
 62
     0
 10
74.3825
 20
15.4616
 30
0.0
 11
73.5817
 21
15.4616
 31
0.0
  0
LINE
  8
0
 62
     0
 10
73.5817
 20
15.4616
 30
0.0
 11
73.5817
 21
16.4621
 31
0.0
  0
LINE
  8
0
 62
     0
 10
73.5817
 20
16.4621
 30
0.0
 11
59.581
 21
16.4621
 31
0.0
  0
LINE
  8
0
 62
     0
 10
207.218
 20
16.4621
 30
0.0
 11
207.218
 21
15.4616
 31
0.0
  0
LINE
  8
0
 62
     0
 10
207.218
 20
15.4616
 30
0.0
 11
206.419
 21
15.4616
 31
0.0
  0
LINE
  8
0
 62
     0
 10
206.419
 20
15.4616
 30
0.0
 11
206.419
 21
12.361
 31
0.0
  0
LINE
  8
0
 62
     0
 10
206.419
 20
12.361
 30
0.0
 11
207.218
 21
12.361
 31
0.0
  0
LINE
  8
0
 62
     0
 10
207.218
 20
12.361
 30
0.0
 11
207.218
 21
6.56086
 31
0.0
  0
LINE
  8
0
 62
     0
 10
207.218
 20
6.56086
 30
0.0
 11
206.419
 21
6.56086
 31
0.0
  0
LINE
  8
0
 62
     0
 10
206.419
 20
6.56086
 30
0.0
 11
206.419
 21
3.46163
 31
0.0
  0
LINE
  8
0
 62
     0
 10
206.419
 20
3.46163
 30
0.0
 11
207.218
 21
3.46163
 31
0.0
  0
LINE
  8
0
 62
     0
 10
207.218
 20
3.46163
 30
0.0
 11
207.218
 21
2.46255
 31
0.0
  0
LINE
  8
0
 62
     0
 10
207.218
 20
2.46255
 30
0.0
 11
221.218
 21
2.46255
 31
0.0
  0
LINE
  8
0
 62
     0
 10
221.218
 20
2.46255
 30
0.0
 11
221.218
 21
3.46163
 31
0.0
  0
LINE
  8
0
 62
     0
 10
221.218
 20
3.46163
 30
0.0
 11
222.02
 21
3.46163
 31
0.0
  0
LINE
  8
0
 62
     0
 10
222.02
 20
3.46163
 30
0.0
 11
222.02
 21
6.56086
 31
0.0
  0
LINE
  8
0
 62
     0
 10
222.02
 20
6.56086
 30
0.0
 11
221.218
 21
6.56086
 31
0.0
  0
LINE
  8
0
 62
     0
 10
221.218
 20
6.56086
 30
0.0
 11
221.218
 21
12.361
 31
0.0
  0
LINE
  8
0
 62
     0
 10
221.218
 20
12.361
 30
0.0
 11
222.02
 21
12.361
 31
0.0
  0
LINE
  8
0
 62
     0
 10
222.02
 20
12.361
 30
0.0
 11
222.02
 21
15.4616
 31
0.0
  0
LINE
  8
0
 62
     0
 10
222.02
 20
15.4616
 30
0.0
 11
221.218
 21
15.4616
 31
0.0
  0
LINE
  8
0
 62
     0
 10
221.218
 20
15.4616
 30
0.0
 11
221.218
 21
16.4621
 31
0.0
  0
LINE
  8
0
 62
     0
 10
221.218
 20
16.4621
 30
0.0
 11
207.218
 21
16.4621
 31
0.0
  0
LINE
  8
0
 62
     0
 10
231.032
 20
16.4621
 30
0.0
 11
231.032
 21
15.4616
 31
0.0
  0
LINE
  8
0
 62
     0
 10
231.032
 20
15.4616
 30
0.0
 11
230.232
 21
15.4616
 31
0.0
  0
LINE
  8
0
 62
     0
 10
230.232
 20
15.4616
 30
0.0
 11
230.232
 21
12.361
 31
0.0
  0
LINE
  8
0
 62
     0
 10
230.232
 20
12.361
 30
0.0
 11
231.032
 21
12.361
 31
0.0
  0
LINE
  8
0
 62
     0
 10
231.032
 20
12.361
 30
0.0
 11
231.032
 21
6.56086
 31
0.0
  0
LINE
  8
0
 62
     0
 10
231.032
 20
6.56086
 30
0.0
 11
230.232
 21
6.56086
 31
0.0
  0
LINE
  8
0
 62
     0
 10
230.232
 20
6.56086
 30
0.0
 11
230.232
 21
3.46163
 31
0.0
  0
LINE
  8
0
 62
     0
 10
230.232
 20
3.46163
 30
0.0
 11
231.032
 21
3.46163
 31
0.0
  0
LINE
  8
0
 62
     0
 10
231.032
 20
3.46163
 30
0.0
 11
231.032
 21
2.46255
 31
0.0
  0
LINE
  8
0
 62
     0
 10
231.032
 20
2.46255
 30
0.0
 11
245.032
 21
2.46255
 31
0.0
  0
LINE
  8
0
 62
     0
 10
245.032
 20
2.46255
 30
0.0
 11
245.032
 21
3.46163
 31
0.0
  0
LINE
  8
0
 62
     0
 10
245.032
 20
3.46163
 30
0.0
 11
245.831
 21
3.46163
 31
0.0
  0
LINE
  8
0
 62
     0
 10
245.831
 20
3.46163
 30
0.0
 11
245.831
 21
6.56086
 31
0.0
  0
LINE
  8
0
 62
     0
 10
245.831
 20
6.56086
 30
0.0
 11
245.032
 21
6.56086
 31
0.0
  0
LINE
  8
0
 62
     0
 10
245.032
 20
6.56086
 30
0.0
 11
245.032
 21
12.361
 31
0.0
  0
LINE
  8
0
 62
     0
 10
245.032
 20
12.361
 30
0.0
 11
245.831
 21
12.361
 31
0.0
  0
LINE
  8
0
 62
     0
 10
245.831
 20
12.361
 30
0.0
 11
245.831
 21
15.4616
 31
0.0
  0
LINE
  8
0
 62
     0
 10
245.831
 20
15.4616
 30
0.0
 11
245.032
 21
15.4616
 31
0.0
  0
LINE
  8
0
 62
     0
 10
245.032
 20
15.4616
 30
0.0
 11
245.032
 21
16.4621
 31
0.0
  0
LINE
  8
0
 62
     0
 10
245.032
 20
16.4621
 30
0.0
 11
231.032
 21
16.4621
 31
0.0
  0
LINE
  8
0
 62
     0
 10
19.0996
 20
35.512
 30
0.0
 11
19.0996
 21
34.5116
 31
0.0
  0
LINE
  8
0
 62
     0
 10
19.0996
 20
34.5116
 30
0.0
 11
18.3017
 21
34.5116
 31
0.0
  0
LINE
  8
0
 62
     0
 10
18.3017
 20
34.5116
 30
0.0
 11
18.3017
 21
31.4124
 31
0.0
  0
LINE
  8
0
 62
     0
 10
18.3017
 20
31.4124
 30
0.0
 11
19.0996
 21
31.4124
 31
0.0
  0
LINE
  8
0
 62
     0
 10
19.0996
 20
31.4124
 30
0.0
 11
19.0996
 21
25.6109
 31
0.0
  0
LINE
  8
0
 62
     0
 10
19.0996
 20
25.6109
 30
0.0
 11
18.3017
 21
25.6109
 31
0.0
  0
LINE
  8
0
 62
     0
 10
18.3017
 20
25.6109
 30
0.0
 11
18.3017
 21
22.5116
 31
0.0
  0
LINE
  8
0
 62
     0
 10
18.3017
 20
22.5116
 30
0.0
 11
19.0996
 21
22.5116
 31
0.0
  0
LINE
  8
0
 62
     0
 10
19.0996
 20
22.5116
 30
0.0
 11
19.0996
 21
21.5126
 31
0.0
  0
LINE
  8
0
 62
     0
 10
19.0996
 20
21.5126
 30
0.0
 11
33.1005
 21
21.5126
 31
0.0
  0
LINE
  8
0
 62
     0
 10
33.1005
 20
21.5126
 30
0.0
 11
33.1005
 21
22.5116
 31
0.0
  0
LINE
  8
0
 62
     0
 10
33.1005
 20
22.5116
 30
0.0
 11
33.8998
 21
22.5116
 31
0.0
  0
LINE
  8
0
 62
     0
 10
33.8998
 20
22.5116
 30
0.0
 11
33.8998
 21
25.6109
 31
0.0
  0
LINE
  8
0
 62
     0
 10
33.8998
 20
25.6109
 30
0.0
 11
33.1005
 21
25.6109
 31
0.0
  0
LINE
  8
0
 62
     0
 10
33.1005
 20
25.6109
 30
0.0
 11
33.1005
 21
31.4124
 31
0.0
  0
LINE
  8
0
 62
     0
 10
33.1005
 20
31.4124
 30
0.0
 11
33.8998
 21
31.4124
 31
0.0
  0
LINE
  8
0
 62
     0
 10
33.8998
 20
31.4124
 30
0.0
 11
33.8998
 21
34.5116
 31
0.0
  0
LINE
  8
0
 62
     0
 10
33.8998
 20
34.5116
 30
0.0
 11
33.1005
 21
34.5116
 31
0.0
  0
LINE
  8
0
 62
     0
 10
33.1005
 20
34.5116
 30
0.0
 11
33.1005
 21
35.512
 31
0.0
  0
LINE
  8
0
 62
     0
 10
33.1005
 20
35.512
 30
0.0
 11
19.0996
 21
35.512
 31
0.0
  0
LINE
  8
0
 62
     0
 10
45.2949
 20
35.512
 30
0.0
 11
45.2949
 21
34.5116
 31
0.0
  0
LINE
  8
0
 62
     0
 10
45.2949
 20
34.5116
 30
0.0
 11
44.4941
 21
34.5116
 31
0.0
  0
LINE
  8
0
 62
     0
 10
44.4941
 20
34.5116
 30
0.0
 11
44.4941
 21
31.4124
 31
0.0
  0
LINE
  8
0
 62
     0
 10
44.4941
 20
31.4124
 30
0.0
 11
45.2949
 21
31.4124
 31
0.0
  0
LINE
  8
0
 62
     0
 10
45.2949
 20
31.4124
 30
0.0
 11
45.2949
 21
25.6109
 31
0.0
  0
LINE
  8
0
 62
     0
 10
45.2949
 20
25.6109
 30
0.0
 11
44.4941
 21
25.6109
 31
0.0
  0
LINE
  8
0
 62
     0
 10
44.4941
 20
25.6109
 30
0.0
 11
44.4941
 21
22.5116
 31
0.0
  0
LINE
  8
0
 62
     0
 10
44.4941
 20
22.5116
 30
0.0
 11
45.2949
 21
22.5116
 31
0.0
  0
LINE
  8
0
 62
     0
 10
45.2949
 20
22.5116
 30
0.0
 11
45.2949
 21
21.5126
 31
0.0
  0
LINE
  8
0
 62
     0
 10
45.2949
 20
21.5126
 30
0.0
 11
59.2956
 21
21.5126
 31
0.0
  0
LINE
  8
0
 62
     0
 10
59.2956
 20
21.5126
 30
0.0
 11
59.2956
 21
22.5116
 31
0.0
  0
LINE
  8
0
 62
     0
 10
59.2956
 20
22.5116
 30
0.0
 11
60.095
 21
22.5116
 31
0.0
  0
LINE
  8
0
 62
     0
 10
60.095
 20
22.5116
 30
0.0
 11
60.095
 21
25.6109
 31
0.0
  0
LINE
  8
0
 62
     0
 10
60.095
 20
25.6109
 30
0.0
 11
59.2956
 21
25.6109
 31
0.0
  0
LINE
  8
0
 62
     0
 10
59.2956
 20
25.6109
 30
0.0
 11
59.2956
 21
31.4124
 31
0.0
  0
LINE
  8
0
 62
     0
 10
59.2956
 20
31.4124
 30
0.0
 11
60.095
 21
31.4124
 31
0.0
  0
LINE
  8
0
 62
     0
 10
60.095
 20
31.4124
 30
0.0
 11
60.095
 21
34.5116
 31
0.0
  0
LINE
  8
0
 62
     0
 10
60.095
 20
34.5116
 30
0.0
 11
59.2956
 21
34.5116
 31
0.0
  0
LINE
  8
0
 62
     0
 10
59.2956
 20
34.5116
 30
0.0
 11
59.2956
 21
35.512
 31
0.0
  0
LINE
  8
0
 62
     0
 10
59.2956
 20
35.512
 30
0.0
 11
45.2949
 21
35.512
 31
0.0
  0
LINE
  8
0
 62
     0
 10
64.3449
 20
35.512
 30
0.0
 11
64.3449
 21
34.5116
 31
0.0
  0
LINE
  8
0
 62
     0
 10
64.3449
 20
34.5116
 30
0.0
 11
63.5455
 21
34.5116
 31
0.0
  0
LINE
  8
0
 62
     0
 10
63.5455
 20
34.5116
 30
0.0
 11
63.5455
 21
31.4124
 31
0.0
  0
LINE
  8
0
 62
     0
 10
63.5455
 20
31.4124
 30
0.0
 11
64.3449
 21
31.4124
 31
0.0
  0
LINE
  8
0
 62
     0
 10
64.3449
 20
31.4124
 30
0.0
 11
64.3449
 21
25.6109
 31
0.0
  0
LINE
  8
0
 62
     0
 10
64.3449
 20
25.6109
 30
0.0
 11
63.5455
 21
25.6109
 31
0.0
  0
LINE
  8
0
 62
     0
 10
63.5455
 20
25.6109
 30
0.0
 11
63.5455
 21
22.5116
 31
0.0
  0
LINE
  8
0
 62
     0
 10
63.5455
 20
22.5116
 30
0.0
 11
64.3449
 21
22.5116
 31
0.0
  0
LINE
  8
0
 62
     0
 10
64.3449
 20
22.5116
 30
0.0
 11
64.3449
 21
21.5126
 31
0.0
  0
LINE
  8
0
 62
     0
 10
64.3449
 20
21.5126
 30
0.0
 11
78.3456
 21
21.5126
 31
0.0
  0
LINE
  8
0
 62
     0
 10
78.3456
 20
21.5126
 30
0.0
 11
78.3456
 21
22.5116
 31
0.0
  0
LINE
  8
0
 62
     0
 10
78.3456
 20
22.5116
 30
0.0
 11
79.145
 21
22.5116
 31
0.0
  0
LINE
  8
0
 62
     0
 10
79.145
 20
22.5116
 30
0.0
 11
79.145
 21
25.6109
 31
0.0
  0
LINE
  8
0
 62
     0
 10
79.145
 20
25.6109
 30
0.0
 11
78.3456
 21
25.6109
 31
0.0
  0
LINE
  8
0
 62
     0
 10
78.3456
 20
25.6109
 30
0.0
 11
78.3456
 21
31.4124
 31
0.0
  0
LINE
  8
0
 62
     0
 10
78.3456
 20
31.4124
 30
0.0
 11
79.145
 21
31.4124
 31
0.0
  0
LINE
  8
0
 62
     0
 10
79.145
 20
31.4124
 30
0.0
 11
79.145
 21
34.5116
 31
0.0
  0
LINE
  8
0
 62
     0
 10
79.145
 20
34.5116
 30
0.0
 11
78.3456
 21
34.5116
 31
0.0
  0
LINE
  8
0
 62
     0
 10
78.3456
 20
34.5116
 30
0.0
 11
78.3456
 21
35.512
 31
0.0
  0
LINE
  8
0
 62
     0
 10
78.3456
 20
35.512
 30
0.0
 11
64.3449
 21
35.512
 31
0.0
  0
LINE
  8
0
 62
     0
 10
83.3949
 20
35.512
 30
0.0
 11
83.3949
 21
34.5116
 31
0.0
  0
LINE
  8
0
 62
     0
 10
83.3949
 20
34.5116
 30
0.0
 11
82.5955
 21
34.5116
 31
0.0
  0
LINE
  8
0
 62
     0
 10
82.5955
 20
34.5116
 30
0.0
 11
82.5955
 21
31.4124
 31
0.0
  0
LINE
  8
0
 62
     0
 10
82.5955
 20
31.4124
 30
0.0
 11
83.3949
 21
31.4124
 31
0.0
  0
LINE
  8
0
 62
     0
 10
83.3949
 20
31.4124
 30
0.0
 11
83.3949
 21
25.6109
 31
0.0
  0
LINE
  8
0
 62
     0
 10
83.3949
 20
25.6109
 30
0.0
 11
82.5955
 21
25.6109
 31
0.0
  0
LINE
  8
0
 62
     0
 10
82.5955
 20
25.6109
 30
0.0
 11
82.5955
 21
22.5116
 31
0.0
  0
LINE
  8
0
 62
     0
 10
82.5955
 20
22.5116
 30
0.0
 11
83.3949
 21
22.5116
 31
0.0
  0
LINE
  8
0
 62
     0
 10
83.3949
 20
22.5116
 30
0.0
 11
83.3949
 21
21.5126
 31
0.0
  0
LINE
  8
0
 62
     0
 10
83.3949
 20
21.5126
 30
0.0
 11
97.3956
 21
21.5126
 31
0.0
  0
LINE
  8
0
 62
     0
 10
97.3956
 20
21.5126
 30
0.0
 11
97.3956
 21
22.5116
 31
0.0
  0
LINE
  8
0
 62
     0
 10
97.3956
 20
22.5116
 30
0.0
 11
98.195
 21
22.5116
 31
0.0
  0
LINE
  8
0
 62
     0
 10
98.195
 20
22.5116
 30
0.0
 11
98.195
 21
25.6109
 31
0.0
  0
LINE
  8
0
 62
     0
 10
98.195
 20
25.6109
 30
0.0
 11
97.3956
 21
25.6109
 31
0.0
  0
LINE
  8
0
 62
     0
 10
97.3956
 20
25.6109
 30
0.0
 11
97.3956
 21
31.4124
 31
0.0
  0
LINE
  8
0
 62
     0
 10
97.3956
 20
31.4124
 30
0.0
 11
98.195
 21
31.4124
 31
0.0
  0
LINE
  8
0
 62
     0
 10
98.195
 20
31.4124
 30
0.0
 11
98.195
 21
34.5116
 31
0.0
  0
LINE
  8
0
 62
     0
 10
98.195
 20
34.5116
 30
0.0
 11
97.3956
 21
34.5116
 31
0.0
  0
LINE
  8
0
 62
     0
 10
97.3956
 20
34.5116
 30
0.0
 11
97.3956
 21
35.512
 31
0.0
  0
LINE
  8
0
 62
     0
 10
97.3956
 20
35.512
 30
0.0
 11
83.3949
 21
35.512
 31
0.0
  0
LINE
  8
0
 62
     0
 10
102.445
 20
35.512
 30
0.0
 11
102.445
 21
34.5116
 31
0.0
  0
LINE
  8
0
 62
     0
 10
102.445
 20
34.5116
 30
0.0
 11
101.646
 21
34.5116
 31
0.0
  0
LINE
  8
0
 62
     0
 10
101.646
 20
34.5116
 30
0.0
 11
101.646
 21
31.4124
 31
0.0
  0
LINE
  8
0
 62
     0
 10
101.646
 20
31.4124
 30
0.0
 11
102.445
 21
31.4124
 31
0.0
  0
LINE
  8
0
 62
     0
 10
102.445
 20
31.4124
 30
0.0
 11
102.445
 21
25.6109
 31
0.0
  0
LINE
  8
0
 62
     0
 10
102.445
 20
25.6109
 30
0.0
 11
101.646
 21
25.6109
 31
0.0
  0
LINE
  8
0
 62
     0
 10
101.646
 20
25.6109
 30
0.0
 11
101.646
 21
22.5116
 31
0.0
  0
LINE
  8
0
 62
     0
 10
101.646
 20
22.5116
 30
0.0
 11
102.445
 21
22.5116
 31
0.0
  0
LINE
  8
0
 62
     0
 10
102.445
 20
22.5116
 30
0.0
 11
102.445
 21
21.5126
 31
0.0
  0
LINE
  8
0
 62
     0
 10
102.445
 20
21.5126
 30
0.0
 11
116.444
 21
21.5126
 31
0.0
  0
LINE
  8
0
 62
     0
 10
116.444
 20
21.5126
 30
0.0
 11
116.444
 21
22.5116
 31
0.0
  0
LINE
  8
0
 62
     0
 10
116.444
 20
22.5116
 30
0.0
 11
117.245
 21
22.5116
 31
0.0
  0
LINE
  8
0
 62
     0
 10
117.245
 20
22.5116
 30
0.0
 11
117.245
 21
25.6109
 31
0.0
  0
LINE
  8
0
 62
     0
 10
117.245
 20
25.6109
 30
0.0
 11
116.444
 21
25.6109
 31
0.0
  0
LINE
  8
0
 62
     0
 10
116.444
 20
25.6109
 30
0.0
 11
116.444
 21
31.4124
 31
0.0
  0
LINE
  8
0
 62
     0
 10
116.444
 20
31.4124
 30
0.0
 11
117.245
 21
31.4124
 31
0.0
  0
LINE
  8
0
 62
     0
 10
117.245
 20
31.4124
 30
0.0
 11
117.245
 21
34.5116
 31
0.0
  0
LINE
  8
0
 62
     0
 10
117.245
 20
34.5116
 30
0.0
 11
116.444
 21
34.5116
 31
0.0
  0
LINE
  8
0
 62
     0
 10
116.444
 20
34.5116
 30
0.0
 11
116.444
 21
35.512
 31
0.0
  0
LINE
  8
0
 62
     0
 10
116.444
 20
35.512
 30
0.0
 11
102.445
 21
35.512
 31
0.0
  0
LINE
  8
0
 62
     0
 10
121.495
 20
35.512
 30
0.0
 11
121.495
 21
34.5116
 31
0.0
  0
LINE
  8
0
 62
     0
 10
121.495
 20
34.5116
 30
0.0
 11
120.694
 21
34.5116
 31
0.0
  0
LINE
  8
0
 62
     0
 10
120.694
 20
34.5116
 30
0.0
 11
120.694
 21
31.4124
 31
0.0
  0
LINE
  8
0
 62
     0
 10
120.694
 20
31.4124
 30
0.0
 11
121.495
 21
31.4124
 31
0.0
  0
LINE
  8
0
 62
     0
 10
121.495
 20
31.4124
 30
0.0
 11
121.495
 21
25.6109
 31
0.0
  0
LINE
  8
0
 62
     0
 10
121.495
 20
25.6109
 30
0.0
 11
120.694
 21
25.6109
 31
0.0
  0
LINE
  8
0
 62
     0
 10
120.694
 20
25.6109
 30
0.0
 11
120.694
 21
22.5116
 31
0.0
  0
LINE
  8
0
 62
     0
 10
120.694
 20
22.5116
 30
0.0
 11
121.495
 21
22.5116
 31
0.0
  0
LINE
  8
0
 62
     0
 10
121.495
 20
22.5116
 30
0.0
 11
121.495
 21
21.5126
 31
0.0
  0
LINE
  8
0
 62
     0
 10
121.495
 20
21.5126
 30
0.0
 11
135.496
 21
21.5126
 31
0.0
  0
LINE
  8
0
 62
     0
 10
135.496
 20
21.5126
 30
0.0
 11
135.496
 21
22.5116
 31
0.0
  0
LINE
  8
0
 62
     0
 10
135.496
 20
22.5116
 30
0.0
 11
136.295
 21
22.5116
 31
0.0
  0
LINE
  8
0
 62
     0
 10
136.295
 20
22.5116
 30
0.0
 11
136.295
 21
25.6109
 31
0.0
  0
LINE
  8
0
 62
     0
 10
136.295
 20
25.6109
 30
0.0
 11
135.496
 21
25.6109
 31
0.0
  0
LINE
  8
0
 62
     0
 10
135.496
 20
25.6109
 30
0.0
 11
135.496
 21
31.4124
 31
0.0
  0
LINE
  8
0
 62
     0
 10
135.496
 20
31.4124
 30
0.0
 11
136.295
 21
31.4124
 31
0.0
  0
LINE
  8
0
 62
     0
 10
136.295
 20
31.4124
 30
0.0
 11
136.295
 21
34.5116
 31
0.0
  0
LINE
  8
0
 62
     0
 10
136.295
 20
34.5116
 30
0.0
 11
135.496
 21
34.5116
 31
0.0
  0
LINE
  8
0
 62
     0
 10
135.496
 20
34.5116
 30
0.0
 11
135.496
 21
35.512
 31
0.0
  0
LINE
  8
0
 62
     0
 10
135.496
 20
35.512
 30
0.0
 11
121.495
 21
35.512
 31
0.0
  0
LINE
  8
0
 62
     0
 10
140.545
 20
35.512
 30
0.0
 11
140.545
 21
34.5116
 31
0.0
  0
LINE
  8
0
 62
     0
 10
140.545
 20
34.5116
 30
0.0
 11
139.746
 21
34.5116
 31
0.0
  0
LINE
  8
0
 62
     0
 10
139.746
 20
34.5116
 30
0.0
 11
139.746
 21
31.4124
 31
0.0
  0
LINE
  8
0
 62
     0
 10
139.746
 20
31.4124
 30
0.0
 11
140.545
 21
31.4124
 31
0.0
  0
LINE
  8
0
 62
     0
 10
140.545
 20
31.4124
 30
0.0
 11
140.545
 21
25.6109
 31
0.0
  0
LINE
  8
0
 62
     0
 10
140.545
 20
25.6109
 30
0.0
 11
139.746
 21
25.6109
 31
0.0
  0
LINE
  8
0
 62
     0
 10
139.746
 20
25.6109
 30
0.0
 11
139.746
 21
22.5116
 31
0.0
  0
LINE
  8
0
 62
     0
 10
139.746
 20
22.5116
 30
0.0
 11
140.545
 21
22.5116
 31
0.0
  0
LINE
  8
0
 62
     0
 10
140.545
 20
22.5116
 30
0.0
 11
140.545
 21
21.5126
 31
0.0
  0
LINE
  8
0
 62
     0
 10
140.545
 20
21.5126
 30
0.0
 11
154.544
 21
21.5126
 31
0.0
  0
LINE
  8
0
 62
     0
 10
154.544
 20
21.5126
 30
0.0
 11
154.544
 21
22.5116
 31
0.0
  0
LINE
  8
0
 62
     0
 10
154.544
 20
22.5116
 30
0.0
 11
155.345
 21
22.5116
 31
0.0
  0
LINE
  8
0
 62
     0
 10
155.345
 20
22.5116
 30
0.0
 11
155.345
 21
25.6109
 31
0.0
  0
LINE
  8
0
 62
     0
 10
155.345
 20
25.6109
 30
0.0
 11
154.544
 21
25.6109
 31
0.0
  0
LINE
  8
0
 62
     0
 10
154.544
 20
25.6109
 30
0.0
 11
154.544
 21
31.4124
 31
0.0
  0
LINE
  8
0
 62
     0
 10
154.544
 20
31.4124
 30
0.0
 11
155.345
 21
31.4124
 31
0.0
  0
LINE
  8
0
 62
     0
 10
155.345
 20
31.4124
 30
0.0
 11
155.345
 21
34.5116
 31
0.0
  0
LINE
  8
0
 62
     0
 10
155.345
 20
34.5116
 30
0.0
 11
154.544
 21
34.5116
 31
0.0
  0
LINE
  8
0
 62
     0
 10
154.544
 20
34.5116
 30
0.0
 11
154.544
 21
35.512
 31
0.0
  0
LINE
  8
0
 62
     0
 10
154.544
 20
35.512
 30
0.0
 11
140.545
 21
35.512
 31
0.0
  0
LINE
  8
0
 62
     0
 10
159.595
 20
35.512
 30
0.0
 11
159.595
 21
34.5116
 31
0.0
  0
LINE
  8
0
 62
     0
 10
159.595
 20
34.5116
 30
0.0
 11
158.794
 21
34.5116
 31
0.0
  0
LINE
  8
0
 62
     0
 10
158.794
 20
34.5116
 30
0.0
 11
158.794
 21
31.4124
 31
0.0
  0
LINE
  8
0
 62
     0
 10
158.794
 20
31.4124
 30
0.0
 11
159.595
 21
31.4124
 31
0.0
  0
LINE
  8
0
 62
     0
 10
159.595
 20
31.4124
 30
0.0
 11
159.595
 21
25.6109
 31
0.0
  0
LINE
  8
0
 62
     0
 10
159.595
 20
25.6109
 30
0.0
 11
158.794
 21
25.6109
 31
0.0
  0
LINE
  8
0
 62
     0
 10
158.794
 20
25.6109
 30
0.0
 11
158.794
 21
22.5116
 31
0.0
  0
LINE
  8
0
 62
     0
 10
158.794
 20
22.5116
 30
0.0
 11
159.595
 21
22.5116
 31
0.0
  0
LINE
  8
0
 62
     0
 10
159.595
 20
22.5116
 30
0.0
 11
159.595
 21
21.5126
 31
0.0
  0
LINE
  8
0
 62
     0
 10
159.595
 20
21.5126
 30
0.0
 11
173.596
 21
21.5126
 31
0.0
  0
LINE
  8
0
 62
     0
 10
173.596
 20
21.5126
 30
0.0
 11
173.596
 21
22.5116
 31
0.0
  0
LINE
  8
0
 62
     0
 10
173.596
 20
22.5116
 30
0.0
 11
174.395
 21
22.5116
 31
0.0
  0
LINE
  8
0
 62
     0
 10
174.395
 20
22.5116
 30
0.0
 11
174.395
 21
25.6109
 31
0.0
  0
LINE
  8
0
 62
     0
 10
174.395
 20
25.6109
 30
0.0
 11
173.596
 21
25.6109
 31
0.0
  0
LINE
  8
0
 62
     0
 10
173.596
 20
25.6109
 30
0.0
 11
173.596
 21
31.4124
 31
0.0
  0
LINE
  8
0
 62
     0
 10
173.596
 20
31.4124
 30
0.0
 11
174.395
 21
31.4124
 31
0.0
  0
LINE
  8
0
 62
     0
 10
174.395
 20
31.4124
 30
0.0
 11
174.395
 21
34.5116
 31
0.0
  0
LINE
  8
0
 62
     0
 10
174.395
 20
34.5116
 30
0.0
 11
173.596
 21
34.5116
 31
0.0
  0
LINE
  8
0
 62
     0
 10
173.596
 20
34.5116
 30
0.0
 11
173.596
 21
35.512
 31
0.0
  0
LINE
  8
0
 62
     0
 10
173.596
 20
35.512
 30
0.0
 11
159.595
 21
35.512
 31
0.0
  0
LINE
  8
0
 62
     0
 10
178.645
 20
35.512
 30
0.0
 11
178.645
 21
34.5116
 31
0.0
  0
LINE
  8
0
 62
     0
 10
178.645
 20
34.5116
 30
0.0
 11
177.846
 21
34.5116
 31
0.0
  0
LINE
  8
0
 62
     0
 10
177.846
 20
34.5116
 30
0.0
 11
177.846
 21
31.4124
 31
0.0
  0
LINE
  8
0
 62
     0
 10
177.846
 20
31.4124
 30
0.0
 11
178.645
 21
31.4124
 31
0.0
  0
LINE
  8
0
 62
     0
 10
178.645
 20
31.4124
 30
0.0
 11
178.645
 21
25.6109
 31
0.0
  0
LINE
  8
0
 62
     0
 10
178.645
 20
25.6109
 30
0.0
 11
177.846
 21
25.6109
 31
0.0
  0
LINE
  8
0
 62
     0
 10
177.846
 20
25.6109
 30
0.0
 11
177.846
 21
22.5116
 31
0.0
  0
LINE
  8
0
 62
     0
 10
177.846
 20
22.5116
 30
0.0
 11
178.645
 21
22.5116
 31
0.0
  0
LINE
  8
0
 62
     0
 10
178.645
 20
22.5116
 30
0.0
 11
178.645
 21
21.5126
 31
0.0
  0
LINE
  8
0
 62
     0
 10
178.645
 20
21.5126
 30
0.0
 11
192.646
 21
21.5126
 31
0.0
  0
LINE
  8
0
 62
     0
 10
192.646
 20
21.5126
 30
0.0
 11
192.646
 21
22.5116
 31
0.0
  0
LINE
  8
0
 62
     0
 10
192.646
 20
22.5116
 30
0.0
 11
193.445
 21
22.5116
 31
0.0
  0
LINE
  8
0
 62
     0
 10
193.445
 20
22.5116
 30
0.0
 11
193.445
 21
25.6109
 31
0.0
  0
LINE
  8
0
 62
     0
 10
193.445
 20
25.6109
 30
0.0
 11
192.646
 21
25.6109
 31
0.0
  0
LINE
  8
0
 62
     0
 10
192.646
 20
25.6109
 30
0.0
 11
192.646
 21
31.4124
 31
0.0
  0
LINE
  8
0
 62
     0
 10
192.646
 20
31.4124
 30
0.0
 11
193.445
 21
31.4124
 31
0.0
  0
LINE
  8
0
 62
     0
 10
193.445
 20
31.4124
 30
0.0
 11
193.445
 21
34.5116
 31
0.0
  0
LINE
  8
0
 62
     0
 10
193.445
 20
34.5116
 30
0.0
 11
192.646
 21
34.5116
 31
0.0
  0
LINE
  8
0
 62
     0
 10
192.646
 20
34.5116
 30
0.0
 11
192.646
 21
35.512
 31
0.0
  0
LINE
  8
0
 62
     0
 10
192.646
 20
35.512
 30
0.0
 11
178.645
 21
35.512
 31
0.0
  0
LINE
  8
0
 62
     0
 10
197.695
 20
35.512
 30
0.0
 11
197.695
 21
34.5116
 31
0.0
  0
LINE
  8
0
 62
     0
 10
197.695
 20
34.5116
 30
0.0
 11
196.896
 21
34.5116
 31
0.0
  0
LINE
  8
0
 62
     0
 10
196.896
 20
34.5116
 30
0.0
 11
196.896
 21
31.4124
 31
0.0
  0
LINE
  8
0
 62
     0
 10
196.896
 20
31.4124
 30
0.0
 11
197.695
 21
31.4124
 31
0.0
  0
LINE
  8
0
 62
     0
 10
197.695
 20
31.4124
 30
0.0
 11
197.695
 21
25.6109
 31
0.0
  0
LINE
  8
0
 62
     0
 10
197.695
 20
25.6109
 30
0.0
 11
196.896
 21
25.6109
 31
0.0
  0
LINE
  8
0
 62
     0
 10
196.896
 20
25.6109
 30
0.0
 11
196.896
 21
22.5116
 31
0.0
  0
LINE
  8
0
 62
     0
 10
196.896
 20
22.5116
 30
0.0
 11
197.695
 21
22.5116
 31
0.0
  0
LINE
  8
0
 62
     0
 10
197.695
 20
22.5116
 30
0.0
 11
197.695
 21
21.5126
 31
0.0
  0
LINE
  8
0
 62
     0
 10
197.695
 20
21.5126
 30
0.0
 11
211.694
 21
21.5126
 31
0.0
  0
LINE
  8
0
 62
     0
 10
211.694
 20
21.5126
 30
0.0
 11
211.694
 21
22.5116
 31
0.0
  0
LINE
  8
0
 62
     0
 10
211.694
 20
22.5116
 30
0.0
 11
212.495
 21
22.5116
 31
0.0
  0
LINE
  8
0
 62
     0
 10
212.495
 20
22.5116
 30
0.0
 11
212.495
 21
25.6109
 31
0.0
  0
LINE
  8
0
 62
     0
 10
212.495
 20
25.6109
 30
0.0
 11
211.694
 21
25.6109
 31
0.0
  0
LINE
  8
0
 62
     0
 10
211.694
 20
25.6109
 30
0.0
 11
211.694
 21
31.4124
 31
0.0
  0
LINE
  8
0
 62
     0
 10
211.694
 20
31.4124
 30
0.0
 11
212.495
 21
31.4124
 31
0.0
  0
LINE
  8
0
 62
     0
 10
212.495
 20
31.4124
 30
0.0
 11
212.495
 21
34.5116
 31
0.0
  0
LINE
  8
0
 62
     0
 10
212.495
 20
34.5116
 30
0.0
 11
211.694
 21
34.5116
 31
0.0
  0
LINE
  8
0
 62
     0
 10
211.694
 20
34.5116
 30
0.0
 11
211.694
 21
35.512
 31
0.0
  0
LINE
  8
0
 62
     0
 10
211.694
 20
35.512
 30
0.0
 11
197.695
 21
35.512
 31
0.0
  0
LINE
  8
0
 62
     0
 10
216.745
 20
35.512
 30
0.0
 11
216.745
 21
34.5116
 31
0.0
  0
LINE
  8
0
 62
     0
 10
216.745
 20
34.5116
 30
0.0
 11
215.944
 21
34.5116
 31
0.0
  0
LINE
  8
0
 62
     0
 10
215.944
 20
34.5116
 30
0.0
 11
215.944
 21
31.4124
 31
0.0
  0
LINE
  8
0
 62
     0
 10
215.944
 20
31.4124
 30
0.0
 11
216.745
 21
31.4124
 31
0.0
  0
LINE
  8
0
 62
     0
 10
216.745
 20
31.4124
 30
0.0
 11
216.745
 21
25.6109
 31
0.0
  0
LINE
  8
0
 62
     0
 10
216.745
 20
25.6109
 30
0.0
 11
215.944
 21
25.6109
 31
0.0
  0
LINE
  8
0
 62
     0
 10
215.944
 20
25.6109
 30
0.0
 11
215.944
 21
22.5116
 31
0.0
  0
LINE
  8
0
 62
     0
 10
215.944
 20
22.5116
 30
0.0
 11
216.745
 21
22.5116
 31
0.0
  0
LINE
  8
0
 62
     0
 10
216.745
 20
22.5116
 30
0.0
 11
216.745
 21
21.5126
 31
0.0
  0
LINE
  8
0
 62
     0
 10
216.745
 20
21.5126
 30
0.0
 11
230.746
 21
21.5126
 31
0.0
  0
LINE
  8
0
 62
     0
 10
230.746
 20
21.5126
 30
0.0
 11
230.746
 21
22.5116
 31
0.0
  0
LINE
  8
0
 62
     0
 10
230.746
 20
22.5116
 30
0.0
 11
231.545
 21
22.5116
 31
0.0
  0
LINE
  8
0
 62
     0
 10
231.545
 20
22.5116
 30
0.0
 11
231.545
 21
25.6109
 31
0.0
  0
LINE
  8
0
 62
     0
 10
231.545
 20
25.6109
 30
0.0
 11
230.746
 21
25.6109
 31
0.0
  0
LINE
  8
0
 62
     0
 10
230.746
 20
25.6109
 30
0.0
 11
230.746
 21
31.4124
 31
0.0
  0
LINE
  8
0
 62
     0
 10
230.746
 20
31.4124
 30
0.0
 11
231.545
 21
31.4124
 31
0.0
  0
LINE
  8
0
 62
     0
 10
231.545
 20
31.4124
 30
0.0
 11
231.545
 21
34.5116
 31
0.0
  0
LINE
  8
0
 62
     0
 10
231.545
 20
34.5116
 30
0.0
 11
230.746
 21
34.5116
 31
0.0
  0
LINE
  8
0
 62
     0
 10
230.746
 20
34.5116
 30
0.0
 11
230.746
 21
35.512
 31
0.0
  0
LINE
  8
0
 62
     0
 10
230.746
 20
35.512
 30
0.0
 11
216.745
 21
35.512
 31
0.0
  0
LINE
  8
0
 62
     0
 10
238.175
 20
35.512
 30
0.0
 11
238.175
 21
34.5116
 31
0.0
  0
LINE
  8
0
 62
     0
 10
238.175
 20
34.5116
 30
0.0
 11
237.377
 21
34.5116
 31
0.0
  0
LINE
  8
0
 62
     0
 10
237.377
 20
34.5116
 30
0.0
 11
237.377
 21
31.4124
 31
0.0
  0
LINE
  8
0
 62
     0
 10
237.377
 20
31.4124
 30
0.0
 11
238.175
 21
31.4124
 31
0.0
  0
LINE
  8
0
 62
     0
 10
238.175
 20
31.4124
 30
0.0
 11
238.175
 21
25.6109
 31
0.0
  0
LINE
  8
0
 62
     0
 10
238.175
 20
25.6109
 30
0.0
 11
237.377
 21
25.6109
 31
0.0
  0
LINE
  8
0
 62
     0
 10
237.377
 20
25.6109
 30
0.0
 11
237.377
 21
22.5116
 31
0.0
  0
LINE
  8
0
 62
     0
 10
237.377
 20
22.5116
 30
0.0
 11
238.175
 21
22.5116
 31
0.0
  0
LINE
  8
0
 62
     0
 10
238.175
 20
22.5116
 30
0.0
 11
238.175
 21
21.5126
 31
0.0
  0
LINE
  8
0
 62
     0
 10
238.175
 20
21.5126
 30
0.0
 11
252.175
 21
21.5126
 31
0.0
  0
LINE
  8
0
 62
     0
 10
252.175
 20
21.5126
 30
0.0
 11
252.175
 21
22.5116
 31
0.0
  0
LINE
  8
0
 62
     0
 10
252.175
 20
22.5116
 30
0.0
 11
252.975
 21
22.5116
 31
0.0
  0
LINE
  8
0
 62
     0
 10
252.975
 20
22.5116
 30
0.0
 11
252.975
 21
25.6109
 31
0.0
  0
LINE
  8
0
 62
     0
 10
252.975
 20
25.6109
 30
0.0
 11
252.175
 21
25.6109
 31
0.0
  0
LINE
  8
0
 62
     0
 10
252.175
 20
25.6109
 30
0.0
 11
252.175
 21
31.4124
 31
0.0
  0
LINE
  8
0
 62
     0
 10
252.175
 20
31.4124
 30
0.0
 11
252.975
 21
31.4124
 31
0.0
  0
LINE
  8
0
 62
     0
 10
252.975
 20
31.4124
 30
0.0
 11
252.975
 21
34.5116
 31
0.0
  0
LINE
  8
0
 62
     0
 10
252.975
 20
34.5116
 30
0.0
 11
252.175
 21
34.5116
 31
0.0
  0
LINE
  8
0
 62
     0
 10
252.175
 20
34.5116
 30
0.0
 11
252.175
 21
35.512
 31
0.0
  0
LINE
  8
0
 62
     0
 10
252.175
 20
35.512
 30
0.0
 11
238.175
 21
35.512
 31
0.0
  0
LINE
  8
0
 62
     0
 10
259.606
 20
35.512
 30
0.0
 11
259.606
 21
34.5116
 31
0.0
  0
LINE
  8
0
 62
     0
 10
259.606
 20
34.5116
 30
0.0
 11
258.807
 21
34.5116
 31
0.0
  0
LINE
  8
0
 62
     0
 10
258.807
 20
34.5116
 30
0.0
 11
258.807
 21
31.4124
 31
0.0
  0
LINE
  8
0
 62
     0
 10
258.807
 20
31.4124
 30
0.0
 11
259.606
 21
31.4124
 31
0.0
  0
LINE
  8
0
 62
     0
 10
259.606
 20
31.4124
 30
0.0
 11
259.606
 21
25.6109
 31
0.0
  0
LINE
  8
0
 62
     0
 10
259.606
 20
25.6109
 30
0.0
 11
258.807
 21
25.6109
 31
0.0
  0
LINE
  8
0
 62
     0
 10
258.807
 20
25.6109
 30
0.0
 11
258.807
 21
22.5116
 31
0.0
  0
LINE
  8
0
 62
     0
 10
258.807
 20
22.5116
 30
0.0
 11
259.606
 21
22.5116
 31
0.0
  0
LINE
  8
0
 62
     0
 10
259.606
 20
22.5116
 30
0.0
 11
259.606
 21
21.5126
 31
0.0
  0
LINE
  8
0
 62
     0
 10
259.606
 20
21.5126
 30
0.0
 11
273.607
 21
21.5126
 31
0.0
  0
LINE
  8
0
 62
     0
 10
273.607
 20
21.5126
 30
0.0
 11
273.607
 21
22.5116
 31
0.0
  0
LINE
  8
0
 62
     0
 10
273.607
 20
22.5116
 30
0.0
 11
274.406
 21
22.5116
 31
0.0
  0
LINE
  8
0
 62
     0
 10
274.406
 20
22.5116
 30
0.0
 11
274.406
 21
25.6109
 31
0.0
  0
LINE
  8
0
 62
     0
 10
274.406
 20
25.6109
 30
0.0
 11
273.607
 21
25.6109
 31
0.0
  0
LINE
  8
0
 62
     0
 10
273.607
 20
25.6109
 30
0.0
 11
273.607
 21
31.4124
 31
0.0
  0
LINE
  8
0
 62
     0
 10
273.607
 20
31.4124
 30
0.0
 11
274.406
 21
31.4124
 31
0.0
  0
LINE
  8
0
 62
     0
 10
274.406
 20
31.4124
 30
0.0
 11
274.406
 21
34.5116
 31
0.0
  0
LINE
  8
0
 62
     0
 10
274.406
 20
34.5116
 30
0.0
 11
273.607
 21
34.5116
 31
0.0
  0
LINE
  8
0
 62
     0
 10
273.607
 20
34.5116
 30
0.0
 11
273.607
 21
35.512
 31
0.0
  0
LINE
  8
0
 62
     0
 10
273.607
 20
35.512
 30
0.0
 11
259.606
 21
35.512
 31
0.0
  0
LINE
  8
0
 62
     0
 10
257.225
 20
54.5606
 30
0.0
 11
257.225
 21
53.5615
 31
0.0
  0
LINE
  8
0
 62
     0
 10
257.225
 20
53.5615
 30
0.0
 11
256.425
 21
53.5615
 31
0.0
  0
LINE
  8
0
 62
     0
 10
256.425
 20
53.5615
 30
0.0
 11
256.425
 21
50.4624
 31
0.0
  0
LINE
  8
0
 62
     0
 10
256.425
 20
50.4624
 30
0.0
 11
257.225
 21
50.4624
 31
0.0
  0
LINE
  8
0
 62
     0
 10
257.225
 20
50.4624
 30
0.0
 11
257.225
 21
49.8616
 31
0.0
  0
LINE
  8
0
 62
     0
 10
257.225
 20
49.8616
 30
0.0
 11
255.7
 21
49.8616
 31
0.0
  0
LINE
  8
0
 62
     0
 10
255.7
 20
49.8616
 30
0.0
 11
255.7
 21
53.0916
 31
0.0
  0
LINE
  8
0
 62
     0
 10
255.7
 20
53.0916
 30
0.0
 11
248.951
 21
53.0916
 31
0.0
  0
LINE
  8
0
 62
     0
 10
248.951
 20
53.0916
 30
0.0
 11
248.951
 21
49.8616
 31
0.0
  0
LINE
  8
0
 62
     0
 10
248.951
 20
49.8616
 30
0.0
 11
248.127
 21
49.8616
 31
0.0
  0
LINE
  8
0
 62
     0
 10
248.127
 20
49.8616
 30
0.0
 11
248.127
 21
47.0613
 31
0.0
  0
LINE
  8
0
 62
     0
 10
248.127
 20
47.0613
 30
0.0
 11
248.951
 21
47.0613
 31
0.0
  0
LINE
  8
0
 62
     0
 10
248.951
 20
47.0613
 30
0.0
 11
248.951
 21
40.7928
 31
0.0
  0
LINE
  8
0
 62
     0
 10
248.951
 20
40.7928
 30
0.0
 11
250.675
 21
40.7928
 31
0.0
  0
LINE
  8
0
 62
     0
 10
250.675
 20
40.7928
 30
0.0
 11
250.675
 21
39.5912
 31
0.0
  0
LINE
  8
0
 62
     0
 10
250.675
 20
39.5912
 30
0.0
 11
253.974
 21
39.5912
 31
0.0
  0
LINE
  8
0
 62
     0
 10
253.974
 20
39.5912
 30
0.0
 11
253.974
 21
40.7928
 31
0.0
  0
LINE
  8
0
 62
     0
 10
253.974
 20
40.7928
 30
0.0
 11
255.7
 21
40.7928
 31
0.0
  0
LINE
  8
0
 62
     0
 10
255.7
 20
40.7928
 30
0.0
 11
255.7
 21
45.2617
 31
0.0
  0
LINE
  8
0
 62
     0
 10
255.7
 20
45.2617
 30
0.0
 11
257.225
 21
45.2617
 31
0.0
  0
LINE
  8
0
 62
     0
 10
257.225
 20
45.2617
 30
0.0
 11
257.225
 21
44.661
 31
0.0
  0
LINE
  8
0
 62
     0
 10
257.225
 20
44.661
 30
0.0
 11
256.425
 21
44.661
 31
0.0
  0
LINE
  8
0
 62
     0
 10
256.425
 20
44.661
 30
0.0
 11
256.425
 21
41.5618
 31
0.0
  0
LINE
  8
0
 62
     0
 10
256.425
 20
41.5618
 30
0.0
 11
257.225
 21
41.5618
 31
0.0
  0
LINE
  8
0
 62
     0
 10
257.225
 20
41.5618
 30
0.0
 11
257.225
 21
40.5613
 31
0.0
  0
LINE
  8
0
 62
     0
 10
257.225
 20
40.5613
 30
0.0
 11
271.225
 21
40.5613
 31
0.0
  0
LINE
  8
0
 62
     0
 10
271.225
 20
40.5613
 30
0.0
 11
271.225
 21
41.5618
 31
0.0
  0
LINE
  8
0
 62
     0
 10
271.225
 20
41.5618
 30
0.0
 11
272.025
 21
41.5618
 31
0.0
  0
LINE
  8
0
 62
     0
 10
272.025
 20
41.5618
 30
0.0
 11
272.025
 21
44.661
 31
0.0
  0
LINE
  8
0
 62
     0
 10
272.025
 20
44.661
 30
0.0
 11
271.225
 21
44.661
 31
0.0
  0
LINE
  8
0
 62
     0
 10
271.225
 20
44.661
 30
0.0
 11
271.225
 21
45.2617
 31
0.0
  0
LINE
  8
0
 62
     0
 10
271.225
 20
45.2617
 30
0.0
 11
272.749
 21
45.2617
 31
0.0
  0
LINE
  8
0
 62
     0
 10
272.749
 20
45.2617
 30
0.0
 11
272.749
 21
40.7928
 31
0.0
  0
LINE
  8
0
 62
     0
 10
272.749
 20
40.7928
 30
0.0
 11
274.475
 21
40.7928
 31
0.0
  0
LINE
  8
0
 62
     0
 10
274.475
 20
40.7928
 30
0.0
 11
274.475
 21
39.5912
 31
0.0
  0
LINE
  8
0
 62
     0
 10
274.475
 20
39.5912
 30
0.0
 11
277.775
 21
39.5912
 31
0.0
  0
LINE
  8
0
 62
     0
 10
277.775
 20
39.5912
 30
0.0
 11
277.775
 21
40.7928
 31
0.0
  0
LINE
  8
0
 62
     0
 10
277.775
 20
40.7928
 30
0.0
 11
279.501
 21
40.7928
 31
0.0
  0
LINE
  8
0
 62
     0
 10
279.501
 20
40.7928
 30
0.0
 11
279.501
 21
47.0613
 31
0.0
  0
LINE
  8
0
 62
     0
 10
279.501
 20
47.0613
 30
0.0
 11
280.325
 21
47.0613
 31
0.0
  0
LINE
  8
0
 62
     0
 10
280.325
 20
47.0613
 30
0.0
 11
280.325
 21
49.8616
 31
0.0
  0
LINE
  8
0
 62
     0
 10
280.325
 20
49.8616
 30
0.0
 11
279.501
 21
49.8616
 31
0.0
  0
LINE
  8
0
 62
     0
 10
279.501
 20
49.8616
 30
0.0
 11
279.501
 21
53.0916
 31
0.0
  0
LINE
  8
0
 62
     0
 10
279.501
 20
53.0916
 30
0.0
 11
272.749
 21
53.0916
 31
0.0
  0
LINE
  8
0
 62
     0
 10
272.749
 20
53.0916
 30
0.0
 11
272.749
 21
49.8616
 31
0.0
  0
LINE
  8
0
 62
     0
 10
272.749
 20
49.8616
 30
0.0
 11
271.225
 21
49.8616
 31
0.0
  0
LINE
  8
0
 62
     0
 10
271.225
 20
49.8616
 30
0.0
 11
271.225
 21
50.4624
 31
0.0
  0
LINE
  8
0
 62
     0
 10
271.225
 20
50.4624
 30
0.0
 11
272.025
 21
50.4624
 31
0.0
  0
LINE
  8
0
 62
     0
 10
272.025
 20
50.4624
 30
0.0
 11
272.025
 21
53.5615
 31
0.0
  0
LINE
  8
0
 62
     0
 10
272.025
 20
53.5615
 30
0.0
 11
271.225
 21
53.5615
 31
0.0
  0
LINE
  8
0
 62
     0
 10
271.225
 20
53.5615
 30
0.0
 11
271.225
 21
54.5606
 31
0.0
  0
LINE
  8
0
 62
     0
 10
271.225
 20
54.5606
 30
0.0
 11
257.225
 21
54.5606
 31
0.0
  0
LINE
  8
0
 62
     0
 10
4.8121
 20
54.5606
 30
0.0
 11
4.8121
 21
53.5615
 31
0.0
  0
LINE
  8
0
 62
     0
 10
4.8121
 20
53.5615
 30
0.0
 11
4.01285
 21
53.5615
 31
0.0
  0
LINE
  8
0
 62
     0
 10
4.01285
 20
53.5615
 30
0.0
 11
4.01285
 21
50.4624
 31
0.0
  0
LINE
  8
0
 62
     0
 10
4.01285
 20
50.4624
 30
0.0
 11
4.8121
 21
50.4624
 31
0.0
  0
LINE
  8
0
 62
     0
 10
4.8121
 20
50.4624
 30
0.0
 11
4.8121
 21
44.661
 31
0.0
  0
LINE
  8
0
 62
     0
 10
4.8121
 20
44.661
 30
0.0
 11
4.01285
 21
44.661
 31
0.0
  0
LINE
  8
0
 62
     0
 10
4.01285
 20
44.661
 30
0.0
 11
4.01285
 21
41.5618
 31
0.0
  0
LINE
  8
0
 62
     0
 10
4.01285
 20
41.5618
 30
0.0
 11
4.8121
 21
41.5618
 31
0.0
  0
LINE
  8
0
 62
     0
 10
4.8121
 20
41.5618
 30
0.0
 11
4.8121
 21
40.5613
 31
0.0
  0
LINE
  8
0
 62
     0
 10
4.8121
 20
40.5613
 30
0.0
 11
18.813
 21
40.5613
 31
0.0
  0
LINE
  8
0
 62
     0
 10
18.813
 20
40.5613
 30
0.0
 11
18.813
 21
41.5618
 31
0.0
  0
LINE
  8
0
 62
     0
 10
18.813
 20
41.5618
 30
0.0
 11
19.6123
 21
41.5618
 31
0.0
  0
LINE
  8
0
 62
     0
 10
19.6123
 20
41.5618
 30
0.0
 11
19.6123
 21
44.661
 31
0.0
  0
LINE
  8
0
 62
     0
 10
19.6123
 20
44.661
 30
0.0
 11
18.813
 21
44.661
 31
0.0
  0
LINE
  8
0
 62
     0
 10
18.813
 20
44.661
 30
0.0
 11
18.813
 21
50.4624
 31
0.0
  0
LINE
  8
0
 62
     0
 10
18.813
 20
50.4624
 30
0.0
 11
19.6123
 21
50.4624
 31
0.0
  0
LINE
  8
0
 62
     0
 10
19.6123
 20
50.4624
 30
0.0
 11
19.6123
 21
53.5615
 31
0.0
  0
LINE
  8
0
 62
     0
 10
19.6123
 20
53.5615
 30
0.0
 11
18.813
 21
53.5615
 31
0.0
  0
LINE
  8
0
 62
     0
 10
18.813
 20
53.5615
 30
0.0
 11
18.813
 21
54.5606
 31
0.0
  0
LINE
  8
0
 62
     0
 10
18.813
 20
54.5606
 30
0.0
 11
4.8121
 21
54.5606
 31
0.0
  0
LINE
  8
0
 62
     0
 10
35.7699
 20
54.5606
 30
0.0
 11
35.7699
 21
53.5615
 31
0.0
  0
LINE
  8
0
 62
     0
 10
35.7699
 20
53.5615
 30
0.0
 11
34.9691
 21
53.5615
 31
0.0
  0
LINE
  8
0
 62
     0
 10
34.9691
 20
53.5615
 30
0.0
 11
34.9691
 21
50.4624
 31
0.0
  0
LINE
  8
0
 62
     0
 10
34.9691
 20
50.4624
 30
0.0
 11
35.7699
 21
50.4624
 31
0.0
  0
LINE
  8
0
 62
     0
 10
35.7699
 20
50.4624
 30
0.0
 11
35.7699
 21
44.661
 31
0.0
  0
LINE
  8
0
 62
     0
 10
35.7699
 20
44.661
 30
0.0
 11
34.9691
 21
44.661
 31
0.0
  0
LINE
  8
0
 62
     0
 10
34.9691
 20
44.661
 30
0.0
 11
34.9691
 21
41.5618
 31
0.0
  0
LINE
  8
0
 62
     0
 10
34.9691
 20
41.5618
 30
0.0
 11
35.7699
 21
41.5618
 31
0.0
  0
LINE
  8
0
 62
     0
 10
35.7699
 20
41.5618
 30
0.0
 11
35.7699
 21
40.5613
 31
0.0
  0
LINE
  8
0
 62
     0
 10
35.7699
 20
40.5613
 30
0.0
 11
49.7692
 21
40.5613
 31
0.0
  0
LINE
  8
0
 62
     0
 10
49.7692
 20
40.5613
 30
0.0
 11
49.7692
 21
41.5618
 31
0.0
  0
LINE
  8
0
 62
     0
 10
49.7692
 20
41.5618
 30
0.0
 11
50.5686
 21
41.5618
 31
0.0
  0
LINE
  8
0
 62
     0
 10
50.5686
 20
41.5618
 30
0.0
 11
50.5686
 21
44.661
 31
0.0
  0
LINE
  8
0
 62
     0
 10
50.5686
 20
44.661
 30
0.0
 11
49.7692
 21
44.661
 31
0.0
  0
LINE
  8
0
 62
     0
 10
49.7692
 20
44.661
 30
0.0
 11
49.7692
 21
50.4624
 31
0.0
  0
LINE
  8
0
 62
     0
 10
49.7692
 20
50.4624
 30
0.0
 11
50.5686
 21
50.4624
 31
0.0
  0
LINE
  8
0
 62
     0
 10
50.5686
 20
50.4624
 30
0.0
 11
50.5686
 21
53.5615
 31
0.0
  0
LINE
  8
0
 62
     0
 10
50.5686
 20
53.5615
 30
0.0
 11
49.7692
 21
53.5615
 31
0.0
  0
LINE
  8
0
 62
     0
 10
49.7692
 20
53.5615
 30
0.0
 11
49.7692
 21
54.5606
 31
0.0
  0
LINE
  8
0
 62
     0
 10
49.7692
 20
54.5606
 30
0.0
 11
35.7699
 21
54.5606
 31
0.0
  0
LINE
  8
0
 62
     0
 10
54.8185
 20
54.5606
 30
0.0
 11
54.8185
 21
53.5615
 31
0.0
  0
LINE
  8
0
 62
     0
 10
54.8185
 20
53.5615
 30
0.0
 11
54.0191
 21
53.5615
 31
0.0
  0
LINE
  8
0
 62
     0
 10
54.0191
 20
53.5615
 30
0.0
 11
54.0191
 21
50.4624
 31
0.0
  0
LINE
  8
0
 62
     0
 10
54.0191
 20
50.4624
 30
0.0
 11
54.8185
 21
50.4624
 31
0.0
  0
LINE
  8
0
 62
     0
 10
54.8185
 20
50.4624
 30
0.0
 11
54.8185
 21
44.661
 31
0.0
  0
LINE
  8
0
 62
     0
 10
54.8185
 20
44.661
 30
0.0
 11
54.0191
 21
44.661
 31
0.0
  0
LINE
  8
0
 62
     0
 10
54.0191
 20
44.661
 30
0.0
 11
54.0191
 21
41.5618
 31
0.0
  0
LINE
  8
0
 62
     0
 10
54.0191
 20
41.5618
 30
0.0
 11
54.8185
 21
41.5618
 31
0.0
  0
LINE
  8
0
 62
     0
 10
54.8185
 20
41.5618
 30
0.0
 11
54.8185
 21
40.5613
 31
0.0
  0
LINE
  8
0
 62
     0
 10
54.8185
 20
40.5613
 30
0.0
 11
68.8192
 21
40.5613
 31
0.0
  0
LINE
  8
0
 62
     0
 10
68.8192
 20
40.5613
 30
0.0
 11
68.8192
 21
41.5618
 31
0.0
  0
LINE
  8
0
 62
     0
 10
68.8192
 20
41.5618
 30
0.0
 11
69.62
 21
41.5618
 31
0.0
  0
LINE
  8
0
 62
     0
 10
69.62
 20
41.5618
 30
0.0
 11
69.62
 21
44.661
 31
0.0
  0
LINE
  8
0
 62
     0
 10
69.62
 20
44.661
 30
0.0
 11
68.8192
 21
44.661
 31
0.0
  0
LINE
  8
0
 62
     0
 10
68.8192
 20
44.661
 30
0.0
 11
68.8192
 21
50.4624
 31
0.0
  0
LINE
  8
0
 62
     0
 10
68.8192
 20
50.4624
 30
0.0
 11
69.62
 21
50.4624
 31
0.0
  0
LINE
  8
0
 62
     0
 10
69.62
 20
50.4624
 30
0.0
 11
69.62
 21
53.5615
 31
0.0
  0
LINE
  8
0
 62
     0
 10
69.62
 20
53.5615
 30
0.0
 11
68.8192
 21
53.5615
 31
0.0
  0
LINE
  8
0
 62
     0
 10
68.8192
 20
53.5615
 30
0.0
 11
68.8192
 21
54.5606
 31
0.0
  0
LINE
  8
0
 62
     0
 10
68.8192
 20
54.5606
 30
0.0
 11
54.8185
 21
54.5606
 31
0.0
  0
LINE
  8
0
 62
     0
 10
73.8699
 20
54.5606
 30
0.0
 11
73.8699
 21
53.5615
 31
0.0
  0
LINE
  8
0
 62
     0
 10
73.8699
 20
53.5615
 30
0.0
 11
73.0691
 21
53.5615
 31
0.0
  0
LINE
  8
0
 62
     0
 10
73.0691
 20
53.5615
 30
0.0
 11
73.0691
 21
50.4624
 31
0.0
  0
LINE
  8
0
 62
     0
 10
73.0691
 20
50.4624
 30
0.0
 11
73.8699
 21
50.4624
 31
0.0
  0
LINE
  8
0
 62
     0
 10
73.8699
 20
50.4624
 30
0.0
 11
73.8699
 21
44.661
 31
0.0
  0
LINE
  8
0
 62
     0
 10
73.8699
 20
44.661
 30
0.0
 11
73.0691
 21
44.661
 31
0.0
  0
LINE
  8
0
 62
     0
 10
73.0691
 20
44.661
 30
0.0
 11
73.0691
 21
41.5618
 31
0.0
  0
LINE
  8
0
 62
     0
 10
73.0691
 20
41.5618
 30
0.0
 11
73.8699
 21
41.5618
 31
0.0
  0
LINE
  8
0
 62
     0
 10
73.8699
 20
41.5618
 30
0.0
 11
73.8699
 21
40.5613
 31
0.0
  0
LINE
  8
0
 62
     0
 10
73.8699
 20
40.5613
 30
0.0
 11
87.8692
 21
40.5613
 31
0.0
  0
LINE
  8
0
 62
     0
 10
87.8692
 20
40.5613
 30
0.0
 11
87.8692
 21
41.5618
 31
0.0
  0
LINE
  8
0
 62
     0
 10
87.8692
 20
41.5618
 30
0.0
 11
88.67
 21
41.5618
 31
0.0
  0
LINE
  8
0
 62
     0
 10
88.67
 20
41.5618
 30
0.0
 11
88.67
 21
44.661
 31
0.0
  0
LINE
  8
0
 62
     0
 10
88.67
 20
44.661
 30
0.0
 11
87.8692
 21
44.661
 31
0.0
  0
LINE
  8
0
 62
     0
 10
87.8692
 20
44.661
 30
0.0
 11
87.8692
 21
50.4624
 31
0.0
  0
LINE
  8
0
 62
     0
 10
87.8692
 20
50.4624
 30
0.0
 11
88.67
 21
50.4624
 31
0.0
  0
LINE
  8
0
 62
     0
 10
88.67
 20
50.4624
 30
0.0
 11
88.67
 21
53.5615
 31
0.0
  0
LINE
  8
0
 62
     0
 10
88.67
 20
53.5615
 30
0.0
 11
87.8692
 21
53.5615
 31
0.0
  0
LINE
  8
0
 62
     0
 10
87.8692
 20
53.5615
 30
0.0
 11
87.8692
 21
54.5606
 31
0.0
  0
LINE
  8
0
 62
     0
 10
87.8692
 20
54.5606
 30
0.0
 11
73.8699
 21
54.5606
 31
0.0
  0
LINE
  8
0
 62
     0
 10
92.9199
 20
54.5606
 30
0.0
 11
92.9199
 21
53.5615
 31
0.0
  0
LINE
  8
0
 62
     0
 10
92.9199
 20
53.5615
 30
0.0
 11
92.1191
 21
53.5615
 31
0.0
  0
LINE
  8
0
 62
     0
 10
92.1191
 20
53.5615
 30
0.0
 11
92.1191
 21
50.4624
 31
0.0
  0
LINE
  8
0
 62
     0
 10
92.1191
 20
50.4624
 30
0.0
 11
92.9199
 21
50.4624
 31
0.0
  0
LINE
  8
0
 62
     0
 10
92.9199
 20
50.4624
 30
0.0
 11
92.9199
 21
44.661
 31
0.0
  0
LINE
  8
0
 62
     0
 10
92.9199
 20
44.661
 30
0.0
 11
92.1191
 21
44.661
 31
0.0
  0
LINE
  8
0
 62
     0
 10
92.1191
 20
44.661
 30
0.0
 11
92.1191
 21
41.5618
 31
0.0
  0
LINE
  8
0
 62
     0
 10
92.1191
 20
41.5618
 30
0.0
 11
92.9199
 21
41.5618
 31
0.0
  0
LINE
  8
0
 62
     0
 10
92.9199
 20
41.5618
 30
0.0
 11
92.9199
 21
40.5613
 31
0.0
  0
LINE
  8
0
 62
     0
 10
92.9199
 20
40.5613
 30
0.0
 11
106.919
 21
40.5613
 31
0.0
  0
LINE
  8
0
 62
     0
 10
106.919
 20
40.5613
 30
0.0
 11
106.919
 21
41.5618
 31
0.0
  0
LINE
  8
0
 62
     0
 10
106.919
 20
41.5618
 30
0.0
 11
107.719
 21
41.5618
 31
0.0
  0
LINE
  8
0
 62
     0
 10
107.719
 20
41.5618
 30
0.0
 11
107.719
 21
44.661
 31
0.0
  0
LINE
  8
0
 62
     0
 10
107.719
 20
44.661
 30
0.0
 11
106.919
 21
44.661
 31
0.0
  0
LINE
  8
0
 62
     0
 10
106.919
 20
44.661
 30
0.0
 11
106.919
 21
50.4624
 31
0.0
  0
LINE
  8
0
 62
     0
 10
106.919
 20
50.4624
 30
0.0
 11
107.719
 21
50.4624
 31
0.0
  0
LINE
  8
0
 62
     0
 10
107.719
 20
50.4624
 30
0.0
 11
107.719
 21
53.5615
 31
0.0
  0
LINE
  8
0
 62
     0
 10
107.719
 20
53.5615
 30
0.0
 11
106.919
 21
53.5615
 31
0.0
  0
LINE
  8
0
 62
     0
 10
106.919
 20
53.5615
 30
0.0
 11
106.919
 21
54.5606
 31
0.0
  0
LINE
  8
0
 62
     0
 10
106.919
 20
54.5606
 30
0.0
 11
92.9199
 21
54.5606
 31
0.0
  0
LINE
  8
0
 62
     0
 10
111.968
 20
54.5606
 30
0.0
 11
111.968
 21
53.5615
 31
0.0
  0
LINE
  8
0
 62
     0
 10
111.968
 20
53.5615
 30
0.0
 11
111.169
 21
53.5615
 31
0.0
  0
LINE
  8
0
 62
     0
 10
111.169
 20
53.5615
 30
0.0
 11
111.169
 21
50.4624
 31
0.0
  0
LINE
  8
0
 62
     0
 10
111.169
 20
50.4624
 30
0.0
 11
111.968
 21
50.4624
 31
0.0
  0
LINE
  8
0
 62
     0
 10
111.968
 20
50.4624
 30
0.0
 11
111.968
 21
44.661
 31
0.0
  0
LINE
  8
0
 62
     0
 10
111.968
 20
44.661
 30
0.0
 11
111.169
 21
44.661
 31
0.0
  0
LINE
  8
0
 62
     0
 10
111.169
 20
44.661
 30
0.0
 11
111.169
 21
41.5618
 31
0.0
  0
LINE
  8
0
 62
     0
 10
111.169
 20
41.5618
 30
0.0
 11
111.968
 21
41.5618
 31
0.0
  0
LINE
  8
0
 62
     0
 10
111.968
 20
41.5618
 30
0.0
 11
111.968
 21
40.5613
 31
0.0
  0
LINE
  8
0
 62
     0
 10
111.968
 20
40.5613
 30
0.0
 11
125.971
 21
40.5613
 31
0.0
  0
LINE
  8
0
 62
     0
 10
125.971
 20
40.5613
 30
0.0
 11
125.971
 21
41.5618
 31
0.0
  0
LINE
  8
0
 62
     0
 10
125.971
 20
41.5618
 30
0.0
 11
126.77
 21
41.5618
 31
0.0
  0
LINE
  8
0
 62
     0
 10
126.77
 20
41.5618
 30
0.0
 11
126.77
 21
44.661
 31
0.0
  0
LINE
  8
0
 62
     0
 10
126.77
 20
44.661
 30
0.0
 11
125.971
 21
44.661
 31
0.0
  0
LINE
  8
0
 62
     0
 10
125.971
 20
44.661
 30
0.0
 11
125.971
 21
50.4624
 31
0.0
  0
LINE
  8
0
 62
     0
 10
125.971
 20
50.4624
 30
0.0
 11
126.77
 21
50.4624
 31
0.0
  0
LINE
  8
0
 62
     0
 10
126.77
 20
50.4624
 30
0.0
 11
126.77
 21
53.5615
 31
0.0
  0
LINE
  8
0
 62
     0
 10
126.77
 20
53.5615
 30
0.0
 11
125.971
 21
53.5615
 31
0.0
  0
LINE
  8
0
 62
     0
 10
125.971
 20
53.5615
 30
0.0
 11
125.971
 21
54.5606
 31
0.0
  0
LINE
  8
0
 62
     0
 10
125.971
 20
54.5606
 30
0.0
 11
111.968
 21
54.5606
 31
0.0
  0
LINE
  8
0
 62
     0
 10
131.02
 20
54.5606
 30
0.0
 11
131.02
 21
53.5615
 31
0.0
  0
LINE
  8
0
 62
     0
 10
131.02
 20
53.5615
 30
0.0
 11
130.218
 21
53.5615
 31
0.0
  0
LINE
  8
0
 62
     0
 10
130.218
 20
53.5615
 30
0.0
 11
130.218
 21
50.4624
 31
0.0
  0
LINE
  8
0
 62
     0
 10
130.218
 20
50.4624
 30
0.0
 11
131.02
 21
50.4624
 31
0.0
  0
LINE
  8
0
 62
     0
 10
131.02
 20
50.4624
 30
0.0
 11
131.02
 21
44.661
 31
0.0
  0
LINE
  8
0
 62
     0
 10
131.02
 20
44.661
 30
0.0
 11
130.218
 21
44.661
 31
0.0
  0
LINE
  8
0
 62
     0
 10
130.218
 20
44.661
 30
0.0
 11
130.218
 21
41.5618
 31
0.0
  0
LINE
  8
0
 62
     0
 10
130.218
 20
41.5618
 30
0.0
 11
131.02
 21
41.5618
 31
0.0
  0
LINE
  8
0
 62
     0
 10
131.02
 20
41.5618
 30
0.0
 11
131.02
 21
40.5613
 31
0.0
  0
LINE
  8
0
 62
     0
 10
131.02
 20
40.5613
 30
0.0
 11
145.019
 21
40.5613
 31
0.0
  0
LINE
  8
0
 62
     0
 10
145.019
 20
40.5613
 30
0.0
 11
145.019
 21
41.5618
 31
0.0
  0
LINE
  8
0
 62
     0
 10
145.019
 20
41.5618
 30
0.0
 11
145.82
 21
41.5618
 31
0.0
  0
LINE
  8
0
 62
     0
 10
145.82
 20
41.5618
 30
0.0
 11
145.82
 21
44.661
 31
0.0
  0
LINE
  8
0
 62
     0
 10
145.82
 20
44.661
 30
0.0
 11
145.019
 21
44.661
 31
0.0
  0
LINE
  8
0
 62
     0
 10
145.019
 20
44.661
 30
0.0
 11
145.019
 21
50.4624
 31
0.0
  0
LINE
  8
0
 62
     0
 10
145.019
 20
50.4624
 30
0.0
 11
145.82
 21
50.4624
 31
0.0
  0
LINE
  8
0
 62
     0
 10
145.82
 20
50.4624
 30
0.0
 11
145.82
 21
53.5615
 31
0.0
  0
LINE
  8
0
 62
     0
 10
145.82
 20
53.5615
 30
0.0
 11
145.019
 21
53.5615
 31
0.0
  0
LINE
  8
0
 62
     0
 10
145.019
 20
53.5615
 30
0.0
 11
145.019
 21
54.5606
 31
0.0
  0
LINE
  8
0
 62
     0
 10
145.019
 20
54.5606
 30
0.0
 11
131.02
 21
54.5606
 31
0.0
  0
LINE
  8
0
 62
     0
 10
150.07
 20
54.5606
 30
0.0
 11
150.07
 21
53.5615
 31
0.0
  0
LINE
  8
0
 62
     0
 10
150.07
 20
53.5615
 30
0.0
 11
149.269
 21
53.5615
 31
0.0
  0
LINE
  8
0
 62
     0
 10
149.269
 20
53.5615
 30
0.0
 11
149.269
 21
50.4624
 31
0.0
  0
LINE
  8
0
 62
     0
 10
149.269
 20
50.4624
 30
0.0
 11
150.07
 21
50.4624
 31
0.0
  0
LINE
  8
0
 62
     0
 10
150.07
 20
50.4624
 30
0.0
 11
150.07
 21
44.661
 31
0.0
  0
LINE
  8
0
 62
     0
 10
150.07
 20
44.661
 30
0.0
 11
149.269
 21
44.661
 31
0.0
  0
LINE
  8
0
 62
     0
 10
149.269
 20
44.661
 30
0.0
 11
149.269
 21
41.5618
 31
0.0
  0
LINE
  8
0
 62
     0
 10
149.269
 20
41.5618
 30
0.0
 11
150.07
 21
41.5618
 31
0.0
  0
LINE
  8
0
 62
     0
 10
150.07
 20
41.5618
 30
0.0
 11
150.07
 21
40.5613
 31
0.0
  0
LINE
  8
0
 62
     0
 10
150.07
 20
40.5613
 30
0.0
 11
164.069
 21
40.5613
 31
0.0
  0
LINE
  8
0
 62
     0
 10
164.069
 20
40.5613
 30
0.0
 11
164.069
 21
41.5618
 31
0.0
  0
LINE
  8
0
 62
     0
 10
164.069
 20
41.5618
 30
0.0
 11
164.87
 21
41.5618
 31
0.0
  0
LINE
  8
0
 62
     0
 10
164.87
 20
41.5618
 30
0.0
 11
164.87
 21
44.661
 31
0.0
  0
LINE
  8
0
 62
     0
 10
164.87
 20
44.661
 30
0.0
 11
164.069
 21
44.661
 31
0.0
  0
LINE
  8
0
 62
     0
 10
164.069
 20
44.661
 30
0.0
 11
164.069
 21
50.4624
 31
0.0
  0
LINE
  8
0
 62
     0
 10
164.069
 20
50.4624
 30
0.0
 11
164.87
 21
50.4624
 31
0.0
  0
LINE
  8
0
 62
     0
 10
164.87
 20
50.4624
 30
0.0
 11
164.87
 21
53.5615
 31
0.0
  0
LINE
  8
0
 62
     0
 10
164.87
 20
53.5615
 30
0.0
 11
164.069
 21
53.5615
 31
0.0
  0
LINE
  8
0
 62
     0
 10
164.069
 20
53.5615
 30
0.0
 11
164.069
 21
54.5606
 31
0.0
  0
LINE
  8
0
 62
     0
 10
164.069
 20
54.5606
 30
0.0
 11
150.07
 21
54.5606
 31
0.0
  0
LINE
  8
0
 62
     0
 10
169.12
 20
54.5606
 30
0.0
 11
169.12
 21
53.5615
 31
0.0
  0
LINE
  8
0
 62
     0
 10
169.12
 20
53.5615
 30
0.0
 11
168.319
 21
53.5615
 31
0.0
  0
LINE
  8
0
 62
     0
 10
168.319
 20
53.5615
 30
0.0
 11
168.319
 21
50.4624
 31
0.0
  0
LINE
  8
0
 62
     0
 10
168.319
 20
50.4624
 30
0.0
 11
169.12
 21
50.4624
 31
0.0
  0
LINE
  8
0
 62
     0
 10
169.12
 20
50.4624
 30
0.0
 11
169.12
 21
44.661
 31
0.0
  0
LINE
  8
0
 62
     0
 10
169.12
 20
44.661
 30
0.0
 11
168.319
 21
44.661
 31
0.0
  0
LINE
  8
0
 62
     0
 10
168.319
 20
44.661
 30
0.0
 11
168.319
 21
41.5618
 31
0.0
  0
LINE
  8
0
 62
     0
 10
168.319
 20
41.5618
 30
0.0
 11
169.12
 21
41.5618
 31
0.0
  0
LINE
  8
0
 62
     0
 10
169.12
 20
41.5618
 30
0.0
 11
169.12
 21
40.5613
 31
0.0
  0
LINE
  8
0
 62
     0
 10
169.12
 20
40.5613
 30
0.0
 11
183.121
 21
40.5613
 31
0.0
  0
LINE
  8
0
 62
     0
 10
183.121
 20
40.5613
 30
0.0
 11
183.121
 21
41.5618
 31
0.0
  0
LINE
  8
0
 62
     0
 10
183.121
 20
41.5618
 30
0.0
 11
183.92
 21
41.5618
 31
0.0
  0
LINE
  8
0
 62
     0
 10
183.92
 20
41.5618
 30
0.0
 11
183.92
 21
44.661
 31
0.0
  0
LINE
  8
0
 62
     0
 10
183.92
 20
44.661
 30
0.0
 11
183.121
 21
44.661
 31
0.0
  0
LINE
  8
0
 62
     0
 10
183.121
 20
44.661
 30
0.0
 11
183.121
 21
50.4624
 31
0.0
  0
LINE
  8
0
 62
     0
 10
183.121
 20
50.4624
 30
0.0
 11
183.92
 21
50.4624
 31
0.0
  0
LINE
  8
0
 62
     0
 10
183.92
 20
50.4624
 30
0.0
 11
183.92
 21
53.5615
 31
0.0
  0
LINE
  8
0
 62
     0
 10
183.92
 20
53.5615
 30
0.0
 11
183.121
 21
53.5615
 31
0.0
  0
LINE
  8
0
 62
     0
 10
183.121
 20
53.5615
 30
0.0
 11
183.121
 21
54.5606
 31
0.0
  0
LINE
  8
0
 62
     0
 10
183.121
 20
54.5606
 30
0.0
 11
169.12
 21
54.5606
 31
0.0
  0
LINE
  8
0
 62
     0
 10
188.17
 20
54.5606
 30
0.0
 11
188.17
 21
53.5615
 31
0.0
  0
LINE
  8
0
 62
     0
 10
188.17
 20
53.5615
 30
0.0
 11
187.371
 21
53.5615
 31
0.0
  0
LINE
  8
0
 62
     0
 10
187.371
 20
53.5615
 30
0.0
 11
187.371
 21
50.4624
 31
0.0
  0
LINE
  8
0
 62
     0
 10
187.371
 20
50.4624
 30
0.0
 11
188.17
 21
50.4624
 31
0.0
  0
LINE
  8
0
 62
     0
 10
188.17
 20
50.4624
 30
0.0
 11
188.17
 21
44.661
 31
0.0
  0
LINE
  8
0
 62
     0
 10
188.17
 20
44.661
 30
0.0
 11
187.371
 21
44.661
 31
0.0
  0
LINE
  8
0
 62
     0
 10
187.371
 20
44.661
 30
0.0
 11
187.371
 21
41.5618
 31
0.0
  0
LINE
  8
0
 62
     0
 10
187.371
 20
41.5618
 30
0.0
 11
188.17
 21
41.5618
 31
0.0
  0
LINE
  8
0
 62
     0
 10
188.17
 20
41.5618
 30
0.0
 11
188.17
 21
40.5613
 31
0.0
  0
LINE
  8
0
 62
     0
 10
188.17
 20
40.5613
 30
0.0
 11
202.169
 21
40.5613
 31
0.0
  0
LINE
  8
0
 62
     0
 10
202.169
 20
40.5613
 30
0.0
 11
202.169
 21
41.5618
 31
0.0
  0
LINE
  8
0
 62
     0
 10
202.169
 20
41.5618
 30
0.0
 11
202.97
 21
41.5618
 31
0.0
  0
LINE
  8
0
 62
     0
 10
202.97
 20
41.5618
 30
0.0
 11
202.97
 21
44.661
 31
0.0
  0
LINE
  8
0
 62
     0
 10
202.97
 20
44.661
 30
0.0
 11
202.169
 21
44.661
 31
0.0
  0
LINE
  8
0
 62
     0
 10
202.169
 20
44.661
 30
0.0
 11
202.169
 21
50.4624
 31
0.0
  0
LINE
  8
0
 62
     0
 10
202.169
 20
50.4624
 30
0.0
 11
202.97
 21
50.4624
 31
0.0
  0
LINE
  8
0
 62
     0
 10
202.97
 20
50.4624
 30
0.0
 11
202.97
 21
53.5615
 31
0.0
  0
LINE
  8
0
 62
     0
 10
202.97
 20
53.5615
 30
0.0
 11
202.169
 21
53.5615
 31
0.0
  0
LINE
  8
0
 62
     0
 10
202.169
 20
53.5615
 30
0.0
 11
202.169
 21
54.5606
 31
0.0
  0
LINE
  8
0
 62
     0
 10
202.169
 20
54.5606
 30
0.0
 11
188.17
 21
54.5606
 31
0.0
  0
LINE
  8
0
 62
     0
 10
207.22
 20
54.5606
 30
0.0
 11
207.22
 21
53.5615
 31
0.0
  0
LINE
  8
0
 62
     0
 10
207.22
 20
53.5615
 30
0.0
 11
206.419
 21
53.5615
 31
0.0
  0
LINE
  8
0
 62
     0
 10
206.419
 20
53.5615
 30
0.0
 11
206.419
 21
50.4624
 31
0.0
  0
LINE
  8
0
 62
     0
 10
206.419
 20
50.4624
 30
0.0
 11
207.22
 21
50.4624
 31
0.0
  0
LINE
  8
0
 62
     0
 10
207.22
 20
50.4624
 30
0.0
 11
207.22
 21
44.661
 31
0.0
  0
LINE
  8
0
 62
     0
 10
207.22
 20
44.661
 30
0.0
 11
206.419
 21
44.661
 31
0.0
  0
LINE
  8
0
 62
     0
 10
206.419
 20
44.661
 30
0.0
 11
206.419
 21
41.5618
 31
0.0
  0
LINE
  8
0
 62
     0
 10
206.419
 20
41.5618
 30
0.0
 11
207.22
 21
41.5618
 31
0.0
  0
LINE
  8
0
 62
     0
 10
207.22
 20
41.5618
 30
0.0
 11
207.22
 21
40.5613
 31
0.0
  0
LINE
  8
0
 62
     0
 10
207.22
 20
40.5613
 30
0.0
 11
221.221
 21
40.5613
 31
0.0
  0
LINE
  8
0
 62
     0
 10
221.221
 20
40.5613
 30
0.0
 11
221.221
 21
41.5618
 31
0.0
  0
LINE
  8
0
 62
     0
 10
221.221
 20
41.5618
 30
0.0
 11
222.02
 21
41.5618
 31
0.0
  0
LINE
  8
0
 62
     0
 10
222.02
 20
41.5618
 30
0.0
 11
222.02
 21
44.661
 31
0.0
  0
LINE
  8
0
 62
     0
 10
222.02
 20
44.661
 30
0.0
 11
221.221
 21
44.661
 31
0.0
  0
LINE
  8
0
 62
     0
 10
221.221
 20
44.661
 30
0.0
 11
221.221
 21
50.4624
 31
0.0
  0
LINE
  8
0
 62
     0
 10
221.221
 20
50.4624
 30
0.0
 11
222.02
 21
50.4624
 31
0.0
  0
LINE
  8
0
 62
     0
 10
222.02
 20
50.4624
 30
0.0
 11
222.02
 21
53.5615
 31
0.0
  0
LINE
  8
0
 62
     0
 10
222.02
 20
53.5615
 30
0.0
 11
221.221
 21
53.5615
 31
0.0
  0
LINE
  8
0
 62
     0
 10
221.221
 20
53.5615
 30
0.0
 11
221.221
 21
54.5606
 31
0.0
  0
LINE
  8
0
 62
     0
 10
221.221
 20
54.5606
 30
0.0
 11
207.22
 21
54.5606
 31
0.0
  0
LINE
  8
0
 62
     0
 10
226.27
 20
54.5606
 30
0.0
 11
226.27
 21
53.5615
 31
0.0
  0
LINE
  8
0
 62
     0
 10
226.27
 20
53.5615
 30
0.0
 11
225.471
 21
53.5615
 31
0.0
  0
LINE
  8
0
 62
     0
 10
225.471
 20
53.5615
 30
0.0
 11
225.471
 21
50.4624
 31
0.0
  0
LINE
  8
0
 62
     0
 10
225.471
 20
50.4624
 30
0.0
 11
226.27
 21
50.4624
 31
0.0
  0
LINE
  8
0
 62
     0
 10
226.27
 20
50.4624
 30
0.0
 11
226.27
 21
44.661
 31
0.0
  0
LINE
  8
0
 62
     0
 10
226.27
 20
44.661
 30
0.0
 11
225.471
 21
44.661
 31
0.0
  0
LINE
  8
0
 62
     0
 10
225.471
 20
44.661
 30
0.0
 11
225.471
 21
41.5618
 31
0.0
  0
LINE
  8
0
 62
     0
 10
225.471
 20
41.5618
 30
0.0
 11
226.27
 21
41.5618
 31
0.0
  0
LINE
  8
0
 62
     0
 10
226.27
 20
41.5618
 30
0.0
 11
226.27
 21
40.5613
 31
0.0
  0
LINE
  8
0
 62
     0
 10
226.27
 20
40.5613
 30
0.0
 11
240.271
 21
40.5613
 31
0.0
  0
LINE
  8
0
 62
     0
 10
240.271
 20
40.5613
 30
0.0
 11
240.271
 21
41.5618
 31
0.0
  0
LINE
  8
0
 62
     0
 10
240.271
 20
41.5618
 30
0.0
 11
241.07
 21
41.5618
 31
0.0
  0
LINE
  8
0
 62
     0
 10
241.07
 20
41.5618
 30
0.0
 11
241.07
 21
44.661
 31
0.0
  0
LINE
  8
0
 62
     0
 10
241.07
 20
44.661
 30
0.0
 11
240.271
 21
44.661
 31
0.0
  0
LINE
  8
0
 62
     0
 10
240.271
 20
44.661
 30
0.0
 11
240.271
 21
50.4624
 31
0.0
  0
LINE
  8
0
 62
     0
 10
240.271
 20
50.4624
 30
0.0
 11
241.07
 21
50.4624
 31
0.0
  0
LINE
  8
0
 62
     0
 10
241.07
 20
50.4624
 30
0.0
 11
241.07
 21
53.5615
 31
0.0
  0
LINE
  8
0
 62
     0
 10
241.07
 20
53.5615
 30
0.0
 11
240.271
 21
53.5615
 31
0.0
  0
LINE
  8
0
 62
     0
 10
240.271
 20
53.5615
 30
0.0
 11
240.271
 21
54.5606
 31
0.0
  0
LINE
  8
0
 62
     0
 10
240.271
 20
54.5606
 30
0.0
 11
226.27
 21
54.5606
 31
0.0
  0
LINE
  8
0
 62
     0
 10
127.71
 20
49.9389
 30
0.0
 11
127.014
 21
49.5847
 31
0.0
  0
LINE
  8
0
 62
     0
 10
127.014
 20
49.5847
 30
0.0
 11
126.46
 21
49.0305
 31
0.0
  0
LINE
  8
0
 62
     0
 10
126.46
 20
49.0305
 30
0.0
 11
126.103
 21
48.3348
 31
0.0
  0
LINE
  8
0
 62
     0
 10
126.103
 20
48.3348
 30
0.0
 11
125.983
 21
47.5601
 31
0.0
  0
LINE
  8
0
 62
     0
 10
125.983
 20
47.5601
 30
0.0
 11
126.103
 21
46.7886
 31
0.0
  0
LINE
  8
0
 62
     0
 10
126.103
 20
46.7886
 30
0.0
 11
126.46
 21
46.0911
 31
0.0
  0
LINE
  8
0
 62
     0
 10
126.46
 20
46.0911
 30
0.0
 11
127.014
 21
45.5387
 31
0.0
  0
LINE
  8
0
 62
     0
 10
127.014
 20
45.5387
 30
0.0
 11
127.71
 21
45.1831
 31
0.0
  0
LINE
  8
0
 62
     0
 10
127.71
 20
45.1831
 30
0.0
 11
128.483
 21
45.0603
 31
0.0
  0
LINE
  8
0
 62
     0
 10
128.483
 20
45.0603
 30
0.0
 11
129.256
 21
45.1831
 31
0.0
  0
LINE
  8
0
 62
     0
 10
129.256
 20
45.1831
 30
0.0
 11
129.952
 21
45.5387
 31
0.0
  0
LINE
  8
0
 62
     0
 10
129.952
 20
45.5387
 30
0.0
 11
130.506
 21
46.0911
 31
0.0
  0
LINE
  8
0
 62
     0
 10
130.506
 20
46.0911
 30
0.0
 11
130.86
 21
46.7886
 31
0.0
  0
LINE
  8
0
 62
     0
 10
130.86
 20
46.7886
 30
0.0
 11
130.984
 21
47.5601
 31
0.0
  0
LINE
  8
0
 62
     0
 10
130.984
 20
47.5601
 30
0.0
 11
130.86
 21
48.3348
 31
0.0
  0
LINE
  8
0
 62
     0
 10
130.86
 20
48.3348
 30
0.0
 11
130.506
 21
49.0305
 31
0.0
  0
LINE
  8
0
 62
     0
 10
130.506
 20
49.0305
 30
0.0
 11
129.952
 21
49.5847
 31
0.0
  0
LINE
  8
0
 62
     0
 10
129.952
 20
49.5847
 30
0.0
 11
129.256
 21
49.9389
 31
0.0
  0
LINE
  8
0
 62
     0
 10
129.256
 20
49.9389
 30
0.0
 11
128.483
 21
50.0599
 31
0.0
  0
LINE
  8
0
 62
     0
 10
128.483
 20
50.0599
 30
0.0
 11
127.71
 21
49.9389
 31
0.0
  0
LINE
  8
0
 62
     0
 10
7.19473
 20
73.612
 30
0.0
 11
7.19473
 21
72.6115
 31
0.0
  0
LINE
  8
0
 62
     0
 10
7.19473
 20
72.6115
 30
0.0
 11
6.39547
 21
72.6115
 31
0.0
  0
LINE
  8
0
 62
     0
 10
6.39547
 20
72.6115
 30
0.0
 11
6.39547
 21
69.5124
 31
0.0
  0
LINE
  8
0
 62
     0
 10
6.39547
 20
69.5124
 30
0.0
 11
7.19473
 21
69.5124
 31
0.0
  0
LINE
  8
0
 62
     0
 10
7.19473
 20
69.5124
 30
0.0
 11
7.19473
 21
63.7124
 31
0.0
  0
LINE
  8
0
 62
     0
 10
7.19473
 20
63.7124
 30
0.0
 11
6.39547
 21
63.7124
 31
0.0
  0
LINE
  8
0
 62
     0
 10
6.39547
 20
63.7124
 30
0.0
 11
6.39547
 21
60.6118
 31
0.0
  0
LINE
  8
0
 62
     0
 10
6.39547
 20
60.6118
 30
0.0
 11
7.19473
 21
60.6118
 31
0.0
  0
LINE
  8
0
 62
     0
 10
7.19473
 20
60.6118
 30
0.0
 11
7.19473
 21
59.6124
 31
0.0
  0
LINE
  8
0
 62
     0
 10
7.19473
 20
59.6124
 30
0.0
 11
21.1942
 21
59.6124
 31
0.0
  0
LINE
  8
0
 62
     0
 10
21.1942
 20
59.6124
 30
0.0
 11
21.1942
 21
60.6118
 31
0.0
  0
LINE
  8
0
 62
     0
 10
21.1942
 20
60.6118
 30
0.0
 11
21.9949
 21
60.6118
 31
0.0
  0
LINE
  8
0
 62
     0
 10
21.9949
 20
60.6118
 30
0.0
 11
21.9949
 21
63.7124
 31
0.0
  0
LINE
  8
0
 62
     0
 10
21.9949
 20
63.7124
 30
0.0
 11
21.1942
 21
63.7124
 31
0.0
  0
LINE
  8
0
 62
     0
 10
21.1942
 20
63.7124
 30
0.0
 11
21.1942
 21
69.5124
 31
0.0
  0
LINE
  8
0
 62
     0
 10
21.1942
 20
69.5124
 30
0.0
 11
21.9949
 21
69.5124
 31
0.0
  0
LINE
  8
0
 62
     0
 10
21.9949
 20
69.5124
 30
0.0
 11
21.9949
 21
72.6115
 31
0.0
  0
LINE
  8
0
 62
     0
 10
21.9949
 20
72.6115
 30
0.0
 11
21.1942
 21
72.6115
 31
0.0
  0
LINE
  8
0
 62
     0
 10
21.1942
 20
72.6115
 30
0.0
 11
21.1942
 21
73.612
 31
0.0
  0
LINE
  8
0
 62
     0
 10
21.1942
 20
73.612
 30
0.0
 11
7.19473
 21
73.612
 31
0.0
  0
LINE
  8
0
 62
     0
 10
31.0059
 20
73.612
 30
0.0
 11
31.0059
 21
72.6115
 31
0.0
  0
LINE
  8
0
 62
     0
 10
31.0059
 20
72.6115
 30
0.0
 11
30.2066
 21
72.6115
 31
0.0
  0
LINE
  8
0
 62
     0
 10
30.2066
 20
72.6115
 30
0.0
 11
30.2066
 21
69.5124
 31
0.0
  0
LINE
  8
0
 62
     0
 10
30.2066
 20
69.5124
 30
0.0
 11
31.0059
 21
69.5124
 31
0.0
  0
LINE
  8
0
 62
     0
 10
31.0059
 20
69.5124
 30
0.0
 11
31.0059
 21
63.7124
 31
0.0
  0
LINE
  8
0
 62
     0
 10
31.0059
 20
63.7124
 30
0.0
 11
30.2066
 21
63.7124
 31
0.0
  0
LINE
  8
0
 62
     0
 10
30.2066
 20
63.7124
 30
0.0
 11
30.2066
 21
60.6118
 31
0.0
  0
LINE
  8
0
 62
     0
 10
30.2066
 20
60.6118
 30
0.0
 11
31.0059
 21
60.6118
 31
0.0
  0
LINE
  8
0
 62
     0
 10
31.0059
 20
60.6118
 30
0.0
 11
31.0059
 21
59.6124
 31
0.0
  0
LINE
  8
0
 62
     0
 10
31.0059
 20
59.6124
 30
0.0
 11
45.0067
 21
59.6124
 31
0.0
  0
LINE
  8
0
 62
     0
 10
45.0067
 20
59.6124
 30
0.0
 11
45.0067
 21
60.6118
 31
0.0
  0
LINE
  8
0
 62
     0
 10
45.0067
 20
60.6118
 30
0.0
 11
45.8075
 21
60.6118
 31
0.0
  0
LINE
  8
0
 62
     0
 10
45.8075
 20
60.6118
 30
0.0
 11
45.8075
 21
63.7124
 31
0.0
  0
LINE
  8
0
 62
     0
 10
45.8075
 20
63.7124
 30
0.0
 11
45.0067
 21
63.7124
 31
0.0
  0
LINE
  8
0
 62
     0
 10
45.0067
 20
63.7124
 30
0.0
 11
45.0067
 21
69.5124
 31
0.0
  0
LINE
  8
0
 62
     0
 10
45.0067
 20
69.5124
 30
0.0
 11
45.8075
 21
69.5124
 31
0.0
  0
LINE
  8
0
 62
     0
 10
45.8075
 20
69.5124
 30
0.0
 11
45.8075
 21
72.6115
 31
0.0
  0
LINE
  8
0
 62
     0
 10
45.8075
 20
72.6115
 30
0.0
 11
45.0067
 21
72.6115
 31
0.0
  0
LINE
  8
0
 62
     0
 10
45.0067
 20
72.6115
 30
0.0
 11
45.0067
 21
73.612
 31
0.0
  0
LINE
  8
0
 62
     0
 10
45.0067
 20
73.612
 30
0.0
 11
31.0059
 21
73.612
 31
0.0
  0
LINE
  8
0
 62
     0
 10
50.0574
 20
73.612
 30
0.0
 11
50.0574
 21
72.6115
 31
0.0
  0
LINE
  8
0
 62
     0
 10
50.0574
 20
72.6115
 30
0.0
 11
49.2566
 21
72.6115
 31
0.0
  0
LINE
  8
0
 62
     0
 10
49.2566
 20
72.6115
 30
0.0
 11
49.2566
 21
69.5124
 31
0.0
  0
LINE
  8
0
 62
     0
 10
49.2566
 20
69.5124
 30
0.0
 11
50.0574
 21
69.5124
 31
0.0
  0
LINE
  8
0
 62
     0
 10
50.0574
 20
69.5124
 30
0.0
 11
50.0574
 21
63.7124
 31
0.0
  0
LINE
  8
0
 62
     0
 10
50.0574
 20
63.7124
 30
0.0
 11
49.2566
 21
63.7124
 31
0.0
  0
LINE
  8
0
 62
     0
 10
49.2566
 20
63.7124
 30
0.0
 11
49.2566
 21
60.6118
 31
0.0
  0
LINE
  8
0
 62
     0
 10
49.2566
 20
60.6118
 30
0.0
 11
50.0574
 21
60.6118
 31
0.0
  0
LINE
  8
0
 62
     0
 10
50.0574
 20
60.6118
 30
0.0
 11
50.0574
 21
59.6124
 31
0.0
  0
LINE
  8
0
 62
     0
 10
50.0574
 20
59.6124
 30
0.0
 11
64.0567
 21
59.6124
 31
0.0
  0
LINE
  8
0
 62
     0
 10
64.0567
 20
59.6124
 30
0.0
 11
64.0567
 21
60.6118
 31
0.0
  0
LINE
  8
0
 62
     0
 10
64.0567
 20
60.6118
 30
0.0
 11
64.8575
 21
60.6118
 31
0.0
  0
LINE
  8
0
 62
     0
 10
64.8575
 20
60.6118
 30
0.0
 11
64.8575
 21
63.7124
 31
0.0
  0
LINE
  8
0
 62
     0
 10
64.8575
 20
63.7124
 30
0.0
 11
64.0567
 21
63.7124
 31
0.0
  0
LINE
  8
0
 62
     0
 10
64.0567
 20
63.7124
 30
0.0
 11
64.0567
 21
69.5124
 31
0.0
  0
LINE
  8
0
 62
     0
 10
64.0567
 20
69.5124
 30
0.0
 11
64.8575
 21
69.5124
 31
0.0
  0
LINE
  8
0
 62
     0
 10
64.8575
 20
69.5124
 30
0.0
 11
64.8575
 21
72.6115
 31
0.0
  0
LINE
  8
0
 62
     0
 10
64.8575
 20
72.6115
 30
0.0
 11
64.0567
 21
72.6115
 31
0.0
  0
LINE
  8
0
 62
     0
 10
64.0567
 20
72.6115
 30
0.0
 11
64.0567
 21
73.612
 31
0.0
  0
LINE
  8
0
 62
     0
 10
64.0567
 20
73.612
 30
0.0
 11
50.0574
 21
73.612
 31
0.0
  0
LINE
  8
0
 62
     0
 10
69.1074
 20
73.612
 30
0.0
 11
69.1074
 21
72.6115
 31
0.0
  0
LINE
  8
0
 62
     0
 10
69.1074
 20
72.6115
 30
0.0
 11
68.3066
 21
72.6115
 31
0.0
  0
LINE
  8
0
 62
     0
 10
68.3066
 20
72.6115
 30
0.0
 11
68.3066
 21
69.5124
 31
0.0
  0
LINE
  8
0
 62
     0
 10
68.3066
 20
69.5124
 30
0.0
 11
69.1074
 21
69.5124
 31
0.0
  0
LINE
  8
0
 62
     0
 10
69.1074
 20
69.5124
 30
0.0
 11
69.1074
 21
63.7124
 31
0.0
  0
LINE
  8
0
 62
     0
 10
69.1074
 20
63.7124
 30
0.0
 11
68.3066
 21
63.7124
 31
0.0
  0
LINE
  8
0
 62
     0
 10
68.3066
 20
63.7124
 30
0.0
 11
68.3066
 21
60.6118
 31
0.0
  0
LINE
  8
0
 62
     0
 10
68.3066
 20
60.6118
 30
0.0
 11
69.1074
 21
60.6118
 31
0.0
  0
LINE
  8
0
 62
     0
 10
69.1074
 20
60.6118
 30
0.0
 11
69.1074
 21
59.6124
 31
0.0
  0
LINE
  8
0
 62
     0
 10
69.1074
 20
59.6124
 30
0.0
 11
83.1067
 21
59.6124
 31
0.0
  0
LINE
  8
0
 62
     0
 10
83.1067
 20
59.6124
 30
0.0
 11
83.1067
 21
60.6118
 31
0.0
  0
LINE
  8
0
 62
     0
 10
83.1067
 20
60.6118
 30
0.0
 11
83.9075
 21
60.6118
 31
0.0
  0
LINE
  8
0
 62
     0
 10
83.9075
 20
60.6118
 30
0.0
 11
83.9075
 21
63.7124
 31
0.0
  0
LINE
  8
0
 62
     0
 10
83.9075
 20
63.7124
 30
0.0
 11
83.1067
 21
63.7124
 31
0.0
  0
LINE
  8
0
 62
     0
 10
83.1067
 20
63.7124
 30
0.0
 11
83.1067
 21
69.5124
 31
0.0
  0
LINE
  8
0
 62
     0
 10
83.1067
 20
69.5124
 30
0.0
 11
83.9075
 21
69.5124
 31
0.0
  0
LINE
  8
0
 62
     0
 10
83.9075
 20
69.5124
 30
0.0
 11
83.9075
 21
72.6115
 31
0.0
  0
LINE
  8
0
 62
     0
 10
83.9075
 20
72.6115
 30
0.0
 11
83.1067
 21
72.6115
 31
0.0
  0
LINE
  8
0
 62
     0
 10
83.1067
 20
72.6115
 30
0.0
 11
83.1067
 21
73.612
 31
0.0
  0
LINE
  8
0
 62
     0
 10
83.1067
 20
73.612
 30
0.0
 11
69.1074
 21
73.612
 31
0.0
  0
LINE
  8
0
 62
     0
 10
88.1574
 20
73.612
 30
0.0
 11
88.1574
 21
72.6115
 31
0.0
  0
LINE
  8
0
 62
     0
 10
88.1574
 20
72.6115
 30
0.0
 11
87.3566
 21
72.6115
 31
0.0
  0
LINE
  8
0
 62
     0
 10
87.3566
 20
72.6115
 30
0.0
 11
87.3566
 21
69.5124
 31
0.0
  0
LINE
  8
0
 62
     0
 10
87.3566
 20
69.5124
 30
0.0
 11
88.1574
 21
69.5124
 31
0.0
  0
LINE
  8
0
 62
     0
 10
88.1574
 20
69.5124
 30
0.0
 11
88.1574
 21
63.7124
 31
0.0
  0
LINE
  8
0
 62
     0
 10
88.1574
 20
63.7124
 30
0.0
 11
87.3566
 21
63.7124
 31
0.0
  0
LINE
  8
0
 62
     0
 10
87.3566
 20
63.7124
 30
0.0
 11
87.3566
 21
60.6118
 31
0.0
  0
LINE
  8
0
 62
     0
 10
87.3566
 20
60.6118
 30
0.0
 11
88.1574
 21
60.6118
 31
0.0
  0
LINE
  8
0
 62
     0
 10
88.1574
 20
60.6118
 30
0.0
 11
88.1574
 21
59.6124
 31
0.0
  0
LINE
  8
0
 62
     0
 10
88.1574
 20
59.6124
 30
0.0
 11
102.157
 21
59.6124
 31
0.0
  0
LINE
  8
0
 62
     0
 10
102.157
 20
59.6124
 30
0.0
 11
102.157
 21
60.6118
 31
0.0
  0
LINE
  8
0
 62
     0
 10
102.157
 20
60.6118
 30
0.0
 11
102.956
 21
60.6118
 31
0.0
  0
LINE
  8
0
 62
     0
 10
102.956
 20
60.6118
 30
0.0
 11
102.956
 21
63.7124
 31
0.0
  0
LINE
  8
0
 62
     0
 10
102.956
 20
63.7124
 30
0.0
 11
102.157
 21
63.7124
 31
0.0
  0
LINE
  8
0
 62
     0
 10
102.157
 20
63.7124
 30
0.0
 11
102.157
 21
69.5124
 31
0.0
  0
LINE
  8
0
 62
     0
 10
102.157
 20
69.5124
 30
0.0
 11
102.956
 21
69.5124
 31
0.0
  0
LINE
  8
0
 62
     0
 10
102.956
 20
69.5124
 30
0.0
 11
102.956
 21
72.6115
 31
0.0
  0
LINE
  8
0
 62
     0
 10
102.956
 20
72.6115
 30
0.0
 11
102.157
 21
72.6115
 31
0.0
  0
LINE
  8
0
 62
     0
 10
102.157
 20
72.6115
 30
0.0
 11
102.157
 21
73.612
 31
0.0
  0
LINE
  8
0
 62
     0
 10
102.157
 20
73.612
 30
0.0
 11
88.1574
 21
73.612
 31
0.0
  0
LINE
  8
0
 62
     0
 10
107.206
 20
73.612
 30
0.0
 11
107.206
 21
72.6115
 31
0.0
  0
LINE
  8
0
 62
     0
 10
107.206
 20
72.6115
 30
0.0
 11
106.407
 21
72.6115
 31
0.0
  0
LINE
  8
0
 62
     0
 10
106.407
 20
72.6115
 30
0.0
 11
106.407
 21
69.5124
 31
0.0
  0
LINE
  8
0
 62
     0
 10
106.407
 20
69.5124
 30
0.0
 11
107.206
 21
69.5124
 31
0.0
  0
LINE
  8
0
 62
     0
 10
107.206
 20
69.5124
 30
0.0
 11
107.206
 21
63.7124
 31
0.0
  0
LINE
  8
0
 62
     0
 10
107.206
 20
63.7124
 30
0.0
 11
106.407
 21
63.7124
 31
0.0
  0
LINE
  8
0
 62
     0
 10
106.407
 20
63.7124
 30
0.0
 11
106.407
 21
60.6118
 31
0.0
  0
LINE
  8
0
 62
     0
 10
106.407
 20
60.6118
 30
0.0
 11
107.206
 21
60.6118
 31
0.0
  0
LINE
  8
0
 62
     0
 10
107.206
 20
60.6118
 30
0.0
 11
107.206
 21
59.6124
 31
0.0
  0
LINE
  8
0
 62
     0
 10
107.206
 20
59.6124
 30
0.0
 11
121.207
 21
59.6124
 31
0.0
  0
LINE
  8
0
 62
     0
 10
121.207
 20
59.6124
 30
0.0
 11
121.207
 21
60.6118
 31
0.0
  0
LINE
  8
0
 62
     0
 10
121.207
 20
60.6118
 30
0.0
 11
122.007
 21
60.6118
 31
0.0
  0
LINE
  8
0
 62
     0
 10
122.007
 20
60.6118
 30
0.0
 11
122.007
 21
63.7124
 31
0.0
  0
LINE
  8
0
 62
     0
 10
122.007
 20
63.7124
 30
0.0
 11
121.207
 21
63.7124
 31
0.0
  0
LINE
  8
0
 62
     0
 10
121.207
 20
63.7124
 30
0.0
 11
121.207
 21
69.5124
 31
0.0
  0
LINE
  8
0
 62
     0
 10
121.207
 20
69.5124
 30
0.0
 11
122.007
 21
69.5124
 31
0.0
  0
LINE
  8
0
 62
     0
 10
122.007
 20
69.5124
 30
0.0
 11
122.007
 21
72.6115
 31
0.0
  0
LINE
  8
0
 62
     0
 10
122.007
 20
72.6115
 30
0.0
 11
121.207
 21
72.6115
 31
0.0
  0
LINE
  8
0
 62
     0
 10
121.207
 20
72.6115
 30
0.0
 11
121.207
 21
73.612
 31
0.0
  0
LINE
  8
0
 62
     0
 10
121.207
 20
73.612
 30
0.0
 11
107.206
 21
73.612
 31
0.0
  0
LINE
  8
0
 62
     0
 10
126.257
 20
73.612
 30
0.0
 11
126.257
 21
72.6115
 31
0.0
  0
LINE
  8
0
 62
     0
 10
126.257
 20
72.6115
 30
0.0
 11
125.457
 21
72.6115
 31
0.0
  0
LINE
  8
0
 62
     0
 10
125.457
 20
72.6115
 30
0.0
 11
125.457
 21
69.5124
 31
0.0
  0
LINE
  8
0
 62
     0
 10
125.457
 20
69.5124
 30
0.0
 11
126.257
 21
69.5124
 31
0.0
  0
LINE
  8
0
 62
     0
 10
126.257
 20
69.5124
 30
0.0
 11
126.257
 21
63.7124
 31
0.0
  0
LINE
  8
0
 62
     0
 10
126.257
 20
63.7124
 30
0.0
 11
125.457
 21
63.7124
 31
0.0
  0
LINE
  8
0
 62
     0
 10
125.457
 20
63.7124
 30
0.0
 11
125.457
 21
60.6118
 31
0.0
  0
LINE
  8
0
 62
     0
 10
125.457
 20
60.6118
 30
0.0
 11
126.257
 21
60.6118
 31
0.0
  0
LINE
  8
0
 62
     0
 10
126.257
 20
60.6118
 30
0.0
 11
126.257
 21
59.6124
 31
0.0
  0
LINE
  8
0
 62
     0
 10
126.257
 20
59.6124
 30
0.0
 11
140.257
 21
59.6124
 31
0.0
  0
LINE
  8
0
 62
     0
 10
140.257
 20
59.6124
 30
0.0
 11
140.257
 21
60.6118
 31
0.0
  0
LINE
  8
0
 62
     0
 10
140.257
 20
60.6118
 30
0.0
 11
141.056
 21
60.6118
 31
0.0
  0
LINE
  8
0
 62
     0
 10
141.056
 20
60.6118
 30
0.0
 11
141.056
 21
63.7124
 31
0.0
  0
LINE
  8
0
 62
     0
 10
141.056
 20
63.7124
 30
0.0
 11
140.257
 21
63.7124
 31
0.0
  0
LINE
  8
0
 62
     0
 10
140.257
 20
63.7124
 30
0.0
 11
140.257
 21
69.5124
 31
0.0
  0
LINE
  8
0
 62
     0
 10
140.257
 20
69.5124
 30
0.0
 11
141.056
 21
69.5124
 31
0.0
  0
LINE
  8
0
 62
     0
 10
141.056
 20
69.5124
 30
0.0
 11
141.056
 21
72.6115
 31
0.0
  0
LINE
  8
0
 62
     0
 10
141.056
 20
72.6115
 30
0.0
 11
140.257
 21
72.6115
 31
0.0
  0
LINE
  8
0
 62
     0
 10
140.257
 20
72.6115
 30
0.0
 11
140.257
 21
73.612
 31
0.0
  0
LINE
  8
0
 62
     0
 10
140.257
 20
73.612
 30
0.0
 11
126.257
 21
73.612
 31
0.0
  0
LINE
  8
0
 62
     0
 10
145.306
 20
73.612
 30
0.0
 11
145.306
 21
72.6115
 31
0.0
  0
LINE
  8
0
 62
     0
 10
145.306
 20
72.6115
 30
0.0
 11
144.507
 21
72.6115
 31
0.0
  0
LINE
  8
0
 62
     0
 10
144.507
 20
72.6115
 30
0.0
 11
144.507
 21
69.5124
 31
0.0
  0
LINE
  8
0
 62
     0
 10
144.507
 20
69.5124
 30
0.0
 11
145.306
 21
69.5124
 31
0.0
  0
LINE
  8
0
 62
     0
 10
145.306
 20
69.5124
 30
0.0
 11
145.306
 21
63.7124
 31
0.0
  0
LINE
  8
0
 62
     0
 10
145.306
 20
63.7124
 30
0.0
 11
144.507
 21
63.7124
 31
0.0
  0
LINE
  8
0
 62
     0
 10
144.507
 20
63.7124
 30
0.0
 11
144.507
 21
60.6118
 31
0.0
  0
LINE
  8
0
 62
     0
 10
144.507
 20
60.6118
 30
0.0
 11
145.306
 21
60.6118
 31
0.0
  0
LINE
  8
0
 62
     0
 10
145.306
 20
60.6118
 30
0.0
 11
145.306
 21
59.6124
 31
0.0
  0
LINE
  8
0
 62
     0
 10
145.306
 20
59.6124
 30
0.0
 11
159.307
 21
59.6124
 31
0.0
  0
LINE
  8
0
 62
     0
 10
159.307
 20
59.6124
 30
0.0
 11
159.307
 21
60.6118
 31
0.0
  0
LINE
  8
0
 62
     0
 10
159.307
 20
60.6118
 30
0.0
 11
160.107
 21
60.6118
 31
0.0
  0
LINE
  8
0
 62
     0
 10
160.107
 20
60.6118
 30
0.0
 11
160.107
 21
63.7124
 31
0.0
  0
LINE
  8
0
 62
     0
 10
160.107
 20
63.7124
 30
0.0
 11
159.307
 21
63.7124
 31
0.0
  0
LINE
  8
0
 62
     0
 10
159.307
 20
63.7124
 30
0.0
 11
159.307
 21
69.5124
 31
0.0
  0
LINE
  8
0
 62
     0
 10
159.307
 20
69.5124
 30
0.0
 11
160.107
 21
69.5124
 31
0.0
  0
LINE
  8
0
 62
     0
 10
160.107
 20
69.5124
 30
0.0
 11
160.107
 21
72.6115
 31
0.0
  0
LINE
  8
0
 62
     0
 10
160.107
 20
72.6115
 30
0.0
 11
159.307
 21
72.6115
 31
0.0
  0
LINE
  8
0
 62
     0
 10
159.307
 20
72.6115
 30
0.0
 11
159.307
 21
73.612
 31
0.0
  0
LINE
  8
0
 62
     0
 10
159.307
 20
73.612
 30
0.0
 11
145.306
 21
73.612
 31
0.0
  0
LINE
  8
0
 62
     0
 10
164.357
 20
73.612
 30
0.0
 11
164.357
 21
72.6115
 31
0.0
  0
LINE
  8
0
 62
     0
 10
164.357
 20
72.6115
 30
0.0
 11
163.557
 21
72.6115
 31
0.0
  0
LINE
  8
0
 62
     0
 10
163.557
 20
72.6115
 30
0.0
 11
163.557
 21
69.5124
 31
0.0
  0
LINE
  8
0
 62
     0
 10
163.557
 20
69.5124
 30
0.0
 11
164.357
 21
69.5124
 31
0.0
  0
LINE
  8
0
 62
     0
 10
164.357
 20
69.5124
 30
0.0
 11
164.357
 21
63.7124
 31
0.0
  0
LINE
  8
0
 62
     0
 10
164.357
 20
63.7124
 30
0.0
 11
163.557
 21
63.7124
 31
0.0
  0
LINE
  8
0
 62
     0
 10
163.557
 20
63.7124
 30
0.0
 11
163.557
 21
60.6118
 31
0.0
  0
LINE
  8
0
 62
     0
 10
163.557
 20
60.6118
 30
0.0
 11
164.357
 21
60.6118
 31
0.0
  0
LINE
  8
0
 62
     0
 10
164.357
 20
60.6118
 30
0.0
 11
164.357
 21
59.6124
 31
0.0
  0
LINE
  8
0
 62
     0
 10
164.357
 20
59.6124
 30
0.0
 11
178.357
 21
59.6124
 31
0.0
  0
LINE
  8
0
 62
     0
 10
178.357
 20
59.6124
 30
0.0
 11
178.357
 21
60.6118
 31
0.0
  0
LINE
  8
0
 62
     0
 10
178.357
 20
60.6118
 30
0.0
 11
179.157
 21
60.6118
 31
0.0
  0
LINE
  8
0
 62
     0
 10
179.157
 20
60.6118
 30
0.0
 11
179.157
 21
63.7124
 31
0.0
  0
LINE
  8
0
 62
     0
 10
179.157
 20
63.7124
 30
0.0
 11
178.357
 21
63.7124
 31
0.0
  0
LINE
  8
0
 62
     0
 10
178.357
 20
63.7124
 30
0.0
 11
178.357
 21
69.5124
 31
0.0
  0
LINE
  8
0
 62
     0
 10
178.357
 20
69.5124
 30
0.0
 11
179.157
 21
69.5124
 31
0.0
  0
LINE
  8
0
 62
     0
 10
179.157
 20
69.5124
 30
0.0
 11
179.157
 21
72.6115
 31
0.0
  0
LINE
  8
0
 62
     0
 10
179.157
 20
72.6115
 30
0.0
 11
178.357
 21
72.6115
 31
0.0
  0
LINE
  8
0
 62
     0
 10
178.357
 20
72.6115
 30
0.0
 11
178.357
 21
73.612
 31
0.0
  0
LINE
  8
0
 62
     0
 10
178.357
 20
73.612
 30
0.0
 11
164.357
 21
73.612
 31
0.0
  0
LINE
  8
0
 62
     0
 10
183.407
 20
73.612
 30
0.0
 11
183.407
 21
72.6115
 31
0.0
  0
LINE
  8
0
 62
     0
 10
183.407
 20
72.6115
 30
0.0
 11
182.607
 21
72.6115
 31
0.0
  0
LINE
  8
0
 62
     0
 10
182.607
 20
72.6115
 30
0.0
 11
182.607
 21
69.5124
 31
0.0
  0
LINE
  8
0
 62
     0
 10
182.607
 20
69.5124
 30
0.0
 11
183.407
 21
69.5124
 31
0.0
  0
LINE
  8
0
 62
     0
 10
183.407
 20
69.5124
 30
0.0
 11
183.407
 21
63.7124
 31
0.0
  0
LINE
  8
0
 62
     0
 10
183.407
 20
63.7124
 30
0.0
 11
182.607
 21
63.7124
 31
0.0
  0
LINE
  8
0
 62
     0
 10
182.607
 20
63.7124
 30
0.0
 11
182.607
 21
60.6118
 31
0.0
  0
LINE
  8
0
 62
     0
 10
182.607
 20
60.6118
 30
0.0
 11
183.407
 21
60.6118
 31
0.0
  0
LINE
  8
0
 62
     0
 10
183.407
 20
60.6118
 30
0.0
 11
183.407
 21
59.6124
 31
0.0
  0
LINE
  8
0
 62
     0
 10
183.407
 20
59.6124
 30
0.0
 11
197.407
 21
59.6124
 31
0.0
  0
LINE
  8
0
 62
     0
 10
197.407
 20
59.6124
 30
0.0
 11
197.407
 21
60.6118
 31
0.0
  0
LINE
  8
0
 62
     0
 10
197.407
 20
60.6118
 30
0.0
 11
198.206
 21
60.6118
 31
0.0
  0
LINE
  8
0
 62
     0
 10
198.206
 20
60.6118
 30
0.0
 11
198.206
 21
63.7124
 31
0.0
  0
LINE
  8
0
 62
     0
 10
198.206
 20
63.7124
 30
0.0
 11
197.407
 21
63.7124
 31
0.0
  0
LINE
  8
0
 62
     0
 10
197.407
 20
63.7124
 30
0.0
 11
197.407
 21
69.5124
 31
0.0
  0
LINE
  8
0
 62
     0
 10
197.407
 20
69.5124
 30
0.0
 11
198.206
 21
69.5124
 31
0.0
  0
LINE
  8
0
 62
     0
 10
198.206
 20
69.5124
 30
0.0
 11
198.206
 21
72.6115
 31
0.0
  0
LINE
  8
0
 62
     0
 10
198.206
 20
72.6115
 30
0.0
 11
197.407
 21
72.6115
 31
0.0
  0
LINE
  8
0
 62
     0
 10
197.407
 20
72.6115
 30
0.0
 11
197.407
 21
73.612
 31
0.0
  0
LINE
  8
0
 62
     0
 10
197.407
 20
73.612
 30
0.0
 11
183.407
 21
73.612
 31
0.0
  0
LINE
  8
0
 62
     0
 10
202.456
 20
73.612
 30
0.0
 11
202.456
 21
72.6115
 31
0.0
  0
LINE
  8
0
 62
     0
 10
202.456
 20
72.6115
 30
0.0
 11
201.657
 21
72.6115
 31
0.0
  0
LINE
  8
0
 62
     0
 10
201.657
 20
72.6115
 30
0.0
 11
201.657
 21
69.5124
 31
0.0
  0
LINE
  8
0
 62
     0
 10
201.657
 20
69.5124
 30
0.0
 11
202.456
 21
69.5124
 31
0.0
  0
LINE
  8
0
 62
     0
 10
202.456
 20
69.5124
 30
0.0
 11
202.456
 21
63.7124
 31
0.0
  0
LINE
  8
0
 62
     0
 10
202.456
 20
63.7124
 30
0.0
 11
201.657
 21
63.7124
 31
0.0
  0
LINE
  8
0
 62
     0
 10
201.657
 20
63.7124
 30
0.0
 11
201.657
 21
60.6118
 31
0.0
  0
LINE
  8
0
 62
     0
 10
201.657
 20
60.6118
 30
0.0
 11
202.456
 21
60.6118
 31
0.0
  0
LINE
  8
0
 62
     0
 10
202.456
 20
60.6118
 30
0.0
 11
202.456
 21
59.6124
 31
0.0
  0
LINE
  8
0
 62
     0
 10
202.456
 20
59.6124
 30
0.0
 11
216.457
 21
59.6124
 31
0.0
  0
LINE
  8
0
 62
     0
 10
216.457
 20
59.6124
 30
0.0
 11
216.457
 21
60.6118
 31
0.0
  0
LINE
  8
0
 62
     0
 10
216.457
 20
60.6118
 30
0.0
 11
217.257
 21
60.6118
 31
0.0
  0
LINE
  8
0
 62
     0
 10
217.257
 20
60.6118
 30
0.0
 11
217.257
 21
63.7124
 31
0.0
  0
LINE
  8
0
 62
     0
 10
217.257
 20
63.7124
 30
0.0
 11
216.457
 21
63.7124
 31
0.0
  0
LINE
  8
0
 62
     0
 10
216.457
 20
63.7124
 30
0.0
 11
216.457
 21
69.5124
 31
0.0
  0
LINE
  8
0
 62
     0
 10
216.457
 20
69.5124
 30
0.0
 11
217.257
 21
69.5124
 31
0.0
  0
LINE
  8
0
 62
     0
 10
217.257
 20
69.5124
 30
0.0
 11
217.257
 21
72.6115
 31
0.0
  0
LINE
  8
0
 62
     0
 10
217.257
 20
72.6115
 30
0.0
 11
216.457
 21
72.6115
 31
0.0
  0
LINE
  8
0
 62
     0
 10
216.457
 20
72.6115
 30
0.0
 11
216.457
 21
73.612
 31
0.0
  0
LINE
  8
0
 62
     0
 10
216.457
 20
73.612
 30
0.0
 11
202.456
 21
73.612
 31
0.0
  0
LINE
  8
0
 62
     0
 10
221.507
 20
73.612
 30
0.0
 11
221.507
 21
72.6115
 31
0.0
  0
LINE
  8
0
 62
     0
 10
221.507
 20
72.6115
 30
0.0
 11
220.707
 21
72.6115
 31
0.0
  0
LINE
  8
0
 62
     0
 10
220.707
 20
72.6115
 30
0.0
 11
220.707
 21
69.5124
 31
0.0
  0
LINE
  8
0
 62
     0
 10
220.707
 20
69.5124
 30
0.0
 11
221.507
 21
69.5124
 31
0.0
  0
LINE
  8
0
 62
     0
 10
221.507
 20
69.5124
 30
0.0
 11
221.507
 21
63.7124
 31
0.0
  0
LINE
  8
0
 62
     0
 10
221.507
 20
63.7124
 30
0.0
 11
220.707
 21
63.7124
 31
0.0
  0
LINE
  8
0
 62
     0
 10
220.707
 20
63.7124
 30
0.0
 11
220.707
 21
60.6118
 31
0.0
  0
LINE
  8
0
 62
     0
 10
220.707
 20
60.6118
 30
0.0
 11
221.507
 21
60.6118
 31
0.0
  0
LINE
  8
0
 62
     0
 10
221.507
 20
60.6118
 30
0.0
 11
221.507
 21
59.6124
 31
0.0
  0
LINE
  8
0
 62
     0
 10
221.507
 20
59.6124
 30
0.0
 11
235.507
 21
59.6124
 31
0.0
  0
LINE
  8
0
 62
     0
 10
235.507
 20
59.6124
 30
0.0
 11
235.507
 21
60.6118
 31
0.0
  0
LINE
  8
0
 62
     0
 10
235.507
 20
60.6118
 30
0.0
 11
236.306
 21
60.6118
 31
0.0
  0
LINE
  8
0
 62
     0
 10
236.306
 20
60.6118
 30
0.0
 11
236.306
 21
63.7124
 31
0.0
  0
LINE
  8
0
 62
     0
 10
236.306
 20
63.7124
 30
0.0
 11
235.507
 21
63.7124
 31
0.0
  0
LINE
  8
0
 62
     0
 10
235.507
 20
63.7124
 30
0.0
 11
235.507
 21
69.5124
 31
0.0
  0
LINE
  8
0
 62
     0
 10
235.507
 20
69.5124
 30
0.0
 11
236.306
 21
69.5124
 31
0.0
  0
LINE
  8
0
 62
     0
 10
236.306
 20
69.5124
 30
0.0
 11
236.306
 21
72.6115
 31
0.0
  0
LINE
  8
0
 62
     0
 10
236.306
 20
72.6115
 30
0.0
 11
235.507
 21
72.6115
 31
0.0
  0
LINE
  8
0
 62
     0
 10
235.507
 20
72.6115
 30
0.0
 11
235.507
 21
73.612
 31
0.0
  0
LINE
  8
0
 62
     0
 10
235.507
 20
73.612
 30
0.0
 11
221.507
 21
73.612
 31
0.0
  0
LINE
  8
0
 62
     0
 10
240.556
 20
73.612
 30
0.0
 11
240.556
 21
72.6115
 31
0.0
  0
LINE
  8
0
 62
     0
 10
240.556
 20
72.6115
 30
0.0
 11
239.757
 21
72.6115
 31
0.0
  0
LINE
  8
0
 62
     0
 10
239.757
 20
72.6115
 30
0.0
 11
239.757
 21
69.5124
 31
0.0
  0
LINE
  8
0
 62
     0
 10
239.757
 20
69.5124
 30
0.0
 11
240.556
 21
69.5124
 31
0.0
  0
LINE
  8
0
 62
     0
 10
240.556
 20
69.5124
 30
0.0
 11
240.556
 21
63.7124
 31
0.0
  0
LINE
  8
0
 62
     0
 10
240.556
 20
63.7124
 30
0.0
 11
239.757
 21
63.7124
 31
0.0
  0
LINE
  8
0
 62
     0
 10
239.757
 20
63.7124
 30
0.0
 11
239.757
 21
60.6118
 31
0.0
  0
LINE
  8
0
 62
     0
 10
239.757
 20
60.6118
 30
0.0
 11
240.556
 21
60.6118
 31
0.0
  0
LINE
  8
0
 62
     0
 10
240.556
 20
60.6118
 30
0.0
 11
240.556
 21
59.6124
 31
0.0
  0
LINE
  8
0
 62
     0
 10
240.556
 20
59.6124
 30
0.0
 11
254.557
 21
59.6124
 31
0.0
  0
LINE
  8
0
 62
     0
 10
254.557
 20
59.6124
 30
0.0
 11
254.557
 21
60.6118
 31
0.0
  0
LINE
  8
0
 62
     0
 10
254.557
 20
60.6118
 30
0.0
 11
255.356
 21
60.6118
 31
0.0
  0
LINE
  8
0
 62
     0
 10
255.356
 20
60.6118
 30
0.0
 11
255.356
 21
63.7124
 31
0.0
  0
LINE
  8
0
 62
     0
 10
255.356
 20
63.7124
 30
0.0
 11
254.557
 21
63.7124
 31
0.0
  0
LINE
  8
0
 62
     0
 10
254.557
 20
63.7124
 30
0.0
 11
254.557
 21
69.5124
 31
0.0
  0
LINE
  8
0
 62
     0
 10
254.557
 20
69.5124
 30
0.0
 11
255.356
 21
69.5124
 31
0.0
  0
LINE
  8
0
 62
     0
 10
255.356
 20
69.5124
 30
0.0
 11
255.356
 21
72.6115
 31
0.0
  0
LINE
  8
0
 62
     0
 10
255.356
 20
72.6115
 30
0.0
 11
254.557
 21
72.6115
 31
0.0
  0
LINE
  8
0
 62
     0
 10
254.557
 20
72.6115
 30
0.0
 11
254.557
 21
73.612
 31
0.0
  0
LINE
  8
0
 62
     0
 10
254.557
 20
73.612
 30
0.0
 11
240.556
 21
73.612
 31
0.0
  0
LINE
  8
0
 62
     0
 10
264.37
 20
73.612
 30
0.0
 11
264.37
 21
72.6115
 31
0.0
  0
LINE
  8
0
 62
     0
 10
264.37
 20
72.6115
 30
0.0
 11
263.569
 21
72.6115
 31
0.0
  0
LINE
  8
0
 62
     0
 10
263.569
 20
72.6115
 30
0.0
 11
263.569
 21
69.5124
 31
0.0
  0
LINE
  8
0
 62
     0
 10
263.569
 20
69.5124
 30
0.0
 11
264.37
 21
69.5124
 31
0.0
  0
LINE
  8
0
 62
     0
 10
264.37
 20
69.5124
 30
0.0
 11
264.37
 21
63.7124
 31
0.0
  0
LINE
  8
0
 62
     0
 10
264.37
 20
63.7124
 30
0.0
 11
263.569
 21
63.7124
 31
0.0
  0
LINE
  8
0
 62
     0
 10
263.569
 20
63.7124
 30
0.0
 11
263.569
 21
60.6118
 31
0.0
  0
LINE
  8
0
 62
     0
 10
263.569
 20
60.6118
 30
0.0
 11
264.37
 21
60.6118
 31
0.0
  0
LINE
  8
0
 62
     0
 10
264.37
 20
60.6118
 30
0.0
 11
264.37
 21
59.6124
 31
0.0
  0
LINE
  8
0
 62
     0
 10
264.37
 20
59.6124
 30
0.0
 11
278.369
 21
59.6124
 31
0.0
  0
LINE
  8
0
 62
     0
 10
278.369
 20
59.6124
 30
0.0
 11
278.369
 21
60.6118
 31
0.0
  0
LINE
  8
0
 62
     0
 10
278.369
 20
60.6118
 30
0.0
 11
279.17
 21
60.6118
 31
0.0
  0
LINE
  8
0
 62
     0
 10
279.17
 20
60.6118
 30
0.0
 11
279.17
 21
63.7124
 31
0.0
  0
LINE
  8
0
 62
     0
 10
279.17
 20
63.7124
 30
0.0
 11
278.369
 21
63.7124
 31
0.0
  0
LINE
  8
0
 62
     0
 10
278.369
 20
63.7124
 30
0.0
 11
278.369
 21
69.5124
 31
0.0
  0
LINE
  8
0
 62
     0
 10
278.369
 20
69.5124
 30
0.0
 11
279.17
 21
69.5124
 31
0.0
  0
LINE
  8
0
 62
     0
 10
279.17
 20
69.5124
 30
0.0
 11
279.17
 21
72.6115
 31
0.0
  0
LINE
  8
0
 62
     0
 10
279.17
 20
72.6115
 30
0.0
 11
278.369
 21
72.6115
 31
0.0
  0
LINE
  8
0
 62
     0
 10
278.369
 20
72.6115
 30
0.0
 11
278.369
 21
73.612
 31
0.0
  0
LINE
  8
0
 62
     0
 10
278.369
 20
73.612
 30
0.0
 11
264.37
 21
73.612
 31
0.0
  0
LINE
  8
0
 62
     0
 10
24.7096
 20
69.3388
 30
0.0
 11
24.0123
 21
68.9846
 31
0.0
  0
LINE
  8
0
 62
     0
 10
24.0123
 20
68.9846
 30
0.0
 11
23.4597
 21
68.4308
 31
0.0
  0
LINE
  8
0
 62
     0
 10
23.4597
 20
68.4308
 30
0.0
 11
23.1056
 21
67.7347
 31
0.0
  0
LINE
  8
0
 62
     0
 10
23.1056
 20
67.7347
 30
0.0
 11
22.9829
 21
66.9604
 31
0.0
  0
LINE
  8
0
 62
     0
 10
22.9829
 20
66.9604
 30
0.0
 11
23.1056
 21
66.1885
 31
0.0
  0
LINE
  8
0
 62
     0
 10
23.1056
 20
66.1885
 30
0.0
 11
23.4597
 21
65.4925
 31
0.0
  0
LINE
  8
0
 62
     0
 10
23.4597
 20
65.4925
 30
0.0
 11
24.0123
 21
64.9386
 31
0.0
  0
LINE
  8
0
 62
     0
 10
24.0123
 20
64.9386
 30
0.0
 11
24.7096
 21
64.5844
 31
0.0
  0
LINE
  8
0
 62
     0
 10
24.7096
 20
64.5844
 30
0.0
 11
25.4827
 21
64.4606
 31
0.0
  0
LINE
  8
0
 62
     0
 10
25.4827
 20
64.4606
 30
0.0
 11
26.2558
 21
64.5844
 31
0.0
  0
LINE
  8
0
 62
     0
 10
26.2558
 20
64.5844
 30
0.0
 11
26.9517
 21
64.9386
 31
0.0
  0
LINE
  8
0
 62
     0
 10
26.9517
 20
64.9386
 30
0.0
 11
27.5029
 21
65.4925
 31
0.0
  0
LINE
  8
0
 62
     0
 10
27.5029
 20
65.4925
 30
0.0
 11
27.8598
 21
66.1885
 31
0.0
  0
LINE
  8
0
 62
     0
 10
27.8598
 20
66.1885
 30
0.0
 11
27.9824
 21
66.9604
 31
0.0
  0
LINE
  8
0
 62
     0
 10
27.9824
 20
66.9604
 30
0.0
 11
27.8598
 21
67.7347
 31
0.0
  0
LINE
  8
0
 62
     0
 10
27.8598
 20
67.7347
 30
0.0
 11
27.5029
 21
68.4308
 31
0.0
  0
LINE
  8
0
 62
     0
 10
27.5029
 20
68.4308
 30
0.0
 11
26.9517
 21
68.9846
 31
0.0
  0
LINE
  8
0
 62
     0
 10
26.9517
 20
68.9846
 30
0.0
 11
26.2558
 21
69.3388
 31
0.0
  0
LINE
  8
0
 62
     0
 10
26.2558
 20
69.3388
 30
0.0
 11
25.4827
 21
69.4612
 31
0.0
  0
LINE
  8
0
 62
     0
 10
25.4827
 20
69.4612
 30
0.0
 11
24.7096
 21
69.3388
 31
0.0
  0
LINE
  8
0
 62
     0
 10
259.559
 20
69.3388
 30
0.0
 11
258.862
 21
68.9846
 31
0.0
  0
LINE
  8
0
 62
     0
 10
258.862
 20
68.9846
 30
0.0
 11
258.309
 21
68.4308
 31
0.0
  0
LINE
  8
0
 62
     0
 10
258.309
 20
68.4308
 30
0.0
 11
257.954
 21
67.7347
 31
0.0
  0
LINE
  8
0
 62
     0
 10
257.954
 20
67.7347
 30
0.0
 11
257.832
 21
66.9604
 31
0.0
  0
LINE
  8
0
 62
     0
 10
257.832
 20
66.9604
 30
0.0
 11
257.954
 21
66.1885
 31
0.0
  0
LINE
  8
0
 62
     0
 10
257.954
 20
66.1885
 30
0.0
 11
258.309
 21
65.4925
 31
0.0
  0
LINE
  8
0
 62
     0
 10
258.309
 20
65.4925
 30
0.0
 11
258.862
 21
64.9386
 31
0.0
  0
LINE
  8
0
 62
     0
 10
258.862
 20
64.9386
 30
0.0
 11
259.559
 21
64.5844
 31
0.0
  0
LINE
  8
0
 62
     0
 10
259.559
 20
64.5844
 30
0.0
 11
260.332
 21
64.4606
 31
0.0
  0
LINE
  8
0
 62
     0
 10
260.332
 20
64.4606
 30
0.0
 11
261.104
 21
64.5844
 31
0.0
  0
LINE
  8
0
 62
     0
 10
261.104
 20
64.5844
 30
0.0
 11
261.801
 21
64.9386
 31
0.0
  0
LINE
  8
0
 62
     0
 10
261.801
 20
64.9386
 30
0.0
 11
262.354
 21
65.4925
 31
0.0
  0
LINE
  8
0
 62
     0
 10
262.354
 20
65.4925
 30
0.0
 11
262.709
 21
66.1885
 31
0.0
  0
LINE
  8
0
 62
     0
 10
262.709
 20
66.1885
 30
0.0
 11
262.832
 21
66.9604
 31
0.0
  0
LINE
  8
0
 62
     0
 10
262.832
 20
66.9604
 30
0.0
 11
262.709
 21
67.7347
 31
0.0
  0
LINE
  8
0
 62
     0
 10
262.709
 20
67.7347
 30
0.0
 11
262.354
 21
68.4308
 31
0.0
  0
LINE
  8
0
 62
     0
 10
262.354
 20
68.4308
 30
0.0
 11
261.801
 21
68.9846
 31
0.0
  0
LINE
  8
0
 62
     0
 10
261.801
 20
68.9846
 30
0.0
 11
261.104
 21
69.3388
 31
0.0
  0
LINE
  8
0
 62
     0
 10
261.104
 20
69.3388
 30
0.0
 11
260.332
 21
69.4612
 31
0.0
  0
LINE
  8
0
 62
     0
 10
260.332
 20
69.4612
 30
0.0
 11
259.559
 21
69.3388
 31
0.0
  0
LINE
  8
0
 62
     0
 10
2.43086
 20
92.662
 30
0.0
 11
2.43086
 21
91.6615
 31
0.0
  0
LINE
  8
0
 62
     0
 10
2.43086
 20
91.6615
 30
0.0
 11
1.6316
 21
91.6615
 31
0.0
  0
LINE
  8
0
 62
     0
 10
1.6316
 20
91.6615
 30
0.0
 11
1.6316
 21
88.5624
 31
0.0
  0
LINE
  8
0
 62
     0
 10
1.6316
 20
88.5624
 30
0.0
 11
2.43086
 21
88.5624
 31
0.0
  0
LINE
  8
0
 62
     0
 10
2.43086
 20
88.5624
 30
0.0
 11
2.43086
 21
82.7624
 31
0.0
  0
LINE
  8
0
 62
     0
 10
2.43086
 20
82.7624
 30
0.0
 11
1.6316
 21
82.7624
 31
0.0
  0
LINE
  8
0
 62
     0
 10
1.6316
 20
82.7624
 30
0.0
 11
1.6316
 21
79.6618
 31
0.0
  0
LINE
  8
0
 62
     0
 10
1.6316
 20
79.6618
 30
0.0
 11
2.43086
 21
79.6618
 31
0.0
  0
LINE
  8
0
 62
     0
 10
2.43086
 20
79.6618
 30
0.0
 11
2.43086
 21
78.6624
 31
0.0
  0
LINE
  8
0
 62
     0
 10
2.43086
 20
78.6624
 30
0.0
 11
16.4317
 21
78.6624
 31
0.0
  0
LINE
  8
0
 62
     0
 10
16.4317
 20
78.6624
 30
0.0
 11
16.4317
 21
79.6618
 31
0.0
  0
LINE
  8
0
 62
     0
 10
16.4317
 20
79.6618
 30
0.0
 11
17.231
 21
79.6618
 31
0.0
  0
LINE
  8
0
 62
     0
 10
17.231
 20
79.6618
 30
0.0
 11
17.231
 21
82.7624
 31
0.0
  0
LINE
  8
0
 62
     0
 10
17.231
 20
82.7624
 30
0.0
 11
16.4317
 21
82.7624
 31
0.0
  0
LINE
  8
0
 62
     0
 10
16.4317
 20
82.7624
 30
0.0
 11
16.4317
 21
88.5624
 31
0.0
  0
LINE
  8
0
 62
     0
 10
16.4317
 20
88.5624
 30
0.0
 11
17.231
 21
88.5624
 31
0.0
  0
LINE
  8
0
 62
     0
 10
17.231
 20
88.5624
 30
0.0
 11
17.231
 21
91.6615
 31
0.0
  0
LINE
  8
0
 62
     0
 10
17.231
 20
91.6615
 30
0.0
 11
16.4317
 21
91.6615
 31
0.0
  0
LINE
  8
0
 62
     0
 10
16.4317
 20
91.6615
 30
0.0
 11
16.4317
 21
92.662
 31
0.0
  0
LINE
  8
0
 62
     0
 10
16.4317
 20
92.662
 30
0.0
 11
2.43086
 21
92.662
 31
0.0
  0
LINE
  8
0
 62
     0
 10
21.4809
 20
92.662
 30
0.0
 11
21.4809
 21
91.6615
 31
0.0
  0
LINE
  8
0
 62
     0
 10
21.4809
 20
91.6615
 30
0.0
 11
20.6816
 21
91.6615
 31
0.0
  0
LINE
  8
0
 62
     0
 10
20.6816
 20
91.6615
 30
0.0
 11
20.6816
 21
88.5624
 31
0.0
  0
LINE
  8
0
 62
     0
 10
20.6816
 20
88.5624
 30
0.0
 11
21.4809
 21
88.5624
 31
0.0
  0
LINE
  8
0
 62
     0
 10
21.4809
 20
88.5624
 30
0.0
 11
21.4809
 21
82.7624
 31
0.0
  0
LINE
  8
0
 62
     0
 10
21.4809
 20
82.7624
 30
0.0
 11
20.6816
 21
82.7624
 31
0.0
  0
LINE
  8
0
 62
     0
 10
20.6816
 20
82.7624
 30
0.0
 11
20.6816
 21
79.6618
 31
0.0
  0
LINE
  8
0
 62
     0
 10
20.6816
 20
79.6618
 30
0.0
 11
21.4809
 21
79.6618
 31
0.0
  0
LINE
  8
0
 62
     0
 10
21.4809
 20
79.6618
 30
0.0
 11
21.4809
 21
78.6624
 31
0.0
  0
LINE
  8
0
 62
     0
 10
21.4809
 20
78.6624
 30
0.0
 11
35.4817
 21
78.6624
 31
0.0
  0
LINE
  8
0
 62
     0
 10
35.4817
 20
78.6624
 30
0.0
 11
35.4817
 21
79.6618
 31
0.0
  0
LINE
  8
0
 62
     0
 10
35.4817
 20
79.6618
 30
0.0
 11
36.2811
 21
79.6618
 31
0.0
  0
LINE
  8
0
 62
     0
 10
36.2811
 20
79.6618
 30
0.0
 11
36.2811
 21
82.7624
 31
0.0
  0
LINE
  8
0
 62
     0
 10
36.2811
 20
82.7624
 30
0.0
 11
35.4817
 21
82.7624
 31
0.0
  0
LINE
  8
0
 62
     0
 10
35.4817
 20
82.7624
 30
0.0
 11
35.4817
 21
88.5624
 31
0.0
  0
LINE
  8
0
 62
     0
 10
35.4817
 20
88.5624
 30
0.0
 11
36.2811
 21
88.5624
 31
0.0
  0
LINE
  8
0
 62
     0
 10
36.2811
 20
88.5624
 30
0.0
 11
36.2811
 21
91.6615
 31
0.0
  0
LINE
  8
0
 62
     0
 10
36.2811
 20
91.6615
 30
0.0
 11
35.4817
 21
91.6615
 31
0.0
  0
LINE
  8
0
 62
     0
 10
35.4817
 20
91.6615
 30
0.0
 11
35.4817
 21
92.662
 31
0.0
  0
LINE
  8
0
 62
     0
 10
35.4817
 20
92.662
 30
0.0
 11
21.4809
 21
92.662
 31
0.0
  0
LINE
  8
0
 62
     0
 10
40.531
 20
92.662
 30
0.0
 11
40.531
 21
91.6615
 31
0.0
  0
LINE
  8
0
 62
     0
 10
40.531
 20
91.6615
 30
0.0
 11
39.7316
 21
91.6615
 31
0.0
  0
LINE
  8
0
 62
     0
 10
39.7316
 20
91.6615
 30
0.0
 11
39.7316
 21
88.5624
 31
0.0
  0
LINE
  8
0
 62
     0
 10
39.7316
 20
88.5624
 30
0.0
 11
40.531
 21
88.5624
 31
0.0
  0
LINE
  8
0
 62
     0
 10
40.531
 20
88.5624
 30
0.0
 11
40.531
 21
82.7624
 31
0.0
  0
LINE
  8
0
 62
     0
 10
40.531
 20
82.7624
 30
0.0
 11
39.7316
 21
82.7624
 31
0.0
  0
LINE
  8
0
 62
     0
 10
39.7316
 20
82.7624
 30
0.0
 11
39.7316
 21
79.6618
 31
0.0
  0
LINE
  8
0
 62
     0
 10
39.7316
 20
79.6618
 30
0.0
 11
40.531
 21
79.6618
 31
0.0
  0
LINE
  8
0
 62
     0
 10
40.531
 20
79.6618
 30
0.0
 11
40.531
 21
78.6624
 31
0.0
  0
LINE
  8
0
 62
     0
 10
40.531
 20
78.6624
 30
0.0
 11
54.5317
 21
78.6624
 31
0.0
  0
LINE
  8
0
 62
     0
 10
54.5317
 20
78.6624
 30
0.0
 11
54.5317
 21
79.6618
 31
0.0
  0
LINE
  8
0
 62
     0
 10
54.5317
 20
79.6618
 30
0.0
 11
55.3311
 21
79.6618
 31
0.0
  0
LINE
  8
0
 62
     0
 10
55.3311
 20
79.6618
 30
0.0
 11
55.3311
 21
82.7624
 31
0.0
  0
LINE
  8
0
 62
     0
 10
55.3311
 20
82.7624
 30
0.0
 11
54.5317
 21
82.7624
 31
0.0
  0
LINE
  8
0
 62
     0
 10
54.5317
 20
82.7624
 30
0.0
 11
54.5317
 21
88.5624
 31
0.0
  0
LINE
  8
0
 62
     0
 10
54.5317
 20
88.5624
 30
0.0
 11
55.3311
 21
88.5624
 31
0.0
  0
LINE
  8
0
 62
     0
 10
55.3311
 20
88.5624
 30
0.0
 11
55.3311
 21
91.6615
 31
0.0
  0
LINE
  8
0
 62
     0
 10
55.3311
 20
91.6615
 30
0.0
 11
54.5317
 21
91.6615
 31
0.0
  0
LINE
  8
0
 62
     0
 10
54.5317
 20
91.6615
 30
0.0
 11
54.5317
 21
92.662
 31
0.0
  0
LINE
  8
0
 62
     0
 10
54.5317
 20
92.662
 30
0.0
 11
40.531
 21
92.662
 31
0.0
  0
LINE
  8
0
 62
     0
 10
59.581
 20
92.662
 30
0.0
 11
59.581
 21
91.6615
 31
0.0
  0
LINE
  8
0
 62
     0
 10
59.581
 20
91.6615
 30
0.0
 11
58.7816
 21
91.6615
 31
0.0
  0
LINE
  8
0
 62
     0
 10
58.7816
 20
91.6615
 30
0.0
 11
58.7816
 21
88.5624
 31
0.0
  0
LINE
  8
0
 62
     0
 10
58.7816
 20
88.5624
 30
0.0
 11
59.581
 21
88.5624
 31
0.0
  0
LINE
  8
0
 62
     0
 10
59.581
 20
88.5624
 30
0.0
 11
59.581
 21
82.7624
 31
0.0
  0
LINE
  8
0
 62
     0
 10
59.581
 20
82.7624
 30
0.0
 11
58.7816
 21
82.7624
 31
0.0
  0
LINE
  8
0
 62
     0
 10
58.7816
 20
82.7624
 30
0.0
 11
58.7816
 21
79.6618
 31
0.0
  0
LINE
  8
0
 62
     0
 10
58.7816
 20
79.6618
 30
0.0
 11
59.581
 21
79.6618
 31
0.0
  0
LINE
  8
0
 62
     0
 10
59.581
 20
79.6618
 30
0.0
 11
59.581
 21
78.6624
 31
0.0
  0
LINE
  8
0
 62
     0
 10
59.581
 20
78.6624
 30
0.0
 11
73.5817
 21
78.6624
 31
0.0
  0
LINE
  8
0
 62
     0
 10
73.5817
 20
78.6624
 30
0.0
 11
73.5817
 21
79.6618
 31
0.0
  0
LINE
  8
0
 62
     0
 10
73.5817
 20
79.6618
 30
0.0
 11
74.3825
 21
79.6618
 31
0.0
  0
LINE
  8
0
 62
     0
 10
74.3825
 20
79.6618
 30
0.0
 11
74.3825
 21
82.7624
 31
0.0
  0
LINE
  8
0
 62
     0
 10
74.3825
 20
82.7624
 30
0.0
 11
73.5817
 21
82.7624
 31
0.0
  0
LINE
  8
0
 62
     0
 10
73.5817
 20
82.7624
 30
0.0
 11
73.5817
 21
88.5624
 31
0.0
  0
LINE
  8
0
 62
     0
 10
73.5817
 20
88.5624
 30
0.0
 11
74.3825
 21
88.5624
 31
0.0
  0
LINE
  8
0
 62
     0
 10
74.3825
 20
88.5624
 30
0.0
 11
74.3825
 21
91.6615
 31
0.0
  0
LINE
  8
0
 62
     0
 10
74.3825
 20
91.6615
 30
0.0
 11
73.5817
 21
91.6615
 31
0.0
  0
LINE
  8
0
 62
     0
 10
73.5817
 20
91.6615
 30
0.0
 11
73.5817
 21
92.662
 31
0.0
  0
LINE
  8
0
 62
     0
 10
73.5817
 20
92.662
 30
0.0
 11
59.581
 21
92.662
 31
0.0
  0
LINE
  8
0
 62
     0
 10
78.6324
 20
92.662
 30
0.0
 11
78.6324
 21
91.6615
 31
0.0
  0
LINE
  8
0
 62
     0
 10
78.6324
 20
91.6615
 30
0.0
 11
77.8316
 21
91.6615
 31
0.0
  0
LINE
  8
0
 62
     0
 10
77.8316
 20
91.6615
 30
0.0
 11
77.8316
 21
88.5624
 31
0.0
  0
LINE
  8
0
 62
     0
 10
77.8316
 20
88.5624
 30
0.0
 11
78.6324
 21
88.5624
 31
0.0
  0
LINE
  8
0
 62
     0
 10
78.6324
 20
88.5624
 30
0.0
 11
78.6324
 21
82.7624
 31
0.0
  0
LINE
  8
0
 62
     0
 10
78.6324
 20
82.7624
 30
0.0
 11
77.8316
 21
82.7624
 31
0.0
  0
LINE
  8
0
 62
     0
 10
77.8316
 20
82.7624
 30
0.0
 11
77.8316
 21
79.6618
 31
0.0
  0
LINE
  8
0
 62
     0
 10
77.8316
 20
79.6618
 30
0.0
 11
78.6324
 21
79.6618
 31
0.0
  0
LINE
  8
0
 62
     0
 10
78.6324
 20
79.6618
 30
0.0
 11
78.6324
 21
78.6624
 31
0.0
  0
LINE
  8
0
 62
     0
 10
78.6324
 20
78.6624
 30
0.0
 11
92.6317
 21
78.6624
 31
0.0
  0
LINE
  8
0
 62
     0
 10
92.6317
 20
78.6624
 30
0.0
 11
92.6317
 21
79.6618
 31
0.0
  0
LINE
  8
0
 62
     0
 10
92.6317
 20
79.6618
 30
0.0
 11
93.4325
 21
79.6618
 31
0.0
  0
LINE
  8
0
 62
     0
 10
93.4325
 20
79.6618
 30
0.0
 11
93.4325
 21
82.7624
 31
0.0
  0
LINE
  8
0
 62
     0
 10
93.4325
 20
82.7624
 30
0.0
 11
92.6317
 21
82.7624
 31
0.0
  0
LINE
  8
0
 62
     0
 10
92.6317
 20
82.7624
 30
0.0
 11
92.6317
 21
88.5624
 31
0.0
  0
LINE
  8
0
 62
     0
 10
92.6317
 20
88.5624
 30
0.0
 11
93.4325
 21
88.5624
 31
0.0
  0
LINE
  8
0
 62
     0
 10
93.4325
 20
88.5624
 30
0.0
 11
93.4325
 21
91.6615
 31
0.0
  0
LINE
  8
0
 62
     0
 10
93.4325
 20
91.6615
 30
0.0
 11
92.6317
 21
91.6615
 31
0.0
  0
LINE
  8
0
 62
     0
 10
92.6317
 20
91.6615
 30
0.0
 11
92.6317
 21
92.662
 31
0.0
  0
LINE
  8
0
 62
     0
 10
92.6317
 20
92.662
 30
0.0
 11
78.6324
 21
92.662
 31
0.0
  0
LINE
  8
0
 62
     0
 10
97.6824
 20
92.662
 30
0.0
 11
97.6824
 21
91.6615
 31
0.0
  0
LINE
  8
0
 62
     0
 10
97.6824
 20
91.6615
 30
0.0
 11
96.8816
 21
91.6615
 31
0.0
  0
LINE
  8
0
 62
     0
 10
96.8816
 20
91.6615
 30
0.0
 11
96.8816
 21
88.5624
 31
0.0
  0
LINE
  8
0
 62
     0
 10
96.8816
 20
88.5624
 30
0.0
 11
97.6824
 21
88.5624
 31
0.0
  0
LINE
  8
0
 62
     0
 10
97.6824
 20
88.5624
 30
0.0
 11
97.6824
 21
82.7624
 31
0.0
  0
LINE
  8
0
 62
     0
 10
97.6824
 20
82.7624
 30
0.0
 11
96.8816
 21
82.7624
 31
0.0
  0
LINE
  8
0
 62
     0
 10
96.8816
 20
82.7624
 30
0.0
 11
96.8816
 21
79.6618
 31
0.0
  0
LINE
  8
0
 62
     0
 10
96.8816
 20
79.6618
 30
0.0
 11
97.6824
 21
79.6618
 31
0.0
  0
LINE
  8
0
 62
     0
 10
97.6824
 20
79.6618
 30
0.0
 11
97.6824
 21
78.6624
 31
0.0
  0
LINE
  8
0
 62
     0
 10
97.6824
 20
78.6624
 30
0.0
 11
111.682
 21
78.6624
 31
0.0
  0
LINE
  8
0
 62
     0
 10
111.682
 20
78.6624
 30
0.0
 11
111.682
 21
79.6618
 31
0.0
  0
LINE
  8
0
 62
     0
 10
111.682
 20
79.6618
 30
0.0
 11
112.482
 21
79.6618
 31
0.0
  0
LINE
  8
0
 62
     0
 10
112.482
 20
79.6618
 30
0.0
 11
112.482
 21
82.7624
 31
0.0
  0
LINE
  8
0
 62
     0
 10
112.482
 20
82.7624
 30
0.0
 11
111.682
 21
82.7624
 31
0.0
  0
LINE
  8
0
 62
     0
 10
111.682
 20
82.7624
 30
0.0
 11
111.682
 21
88.5624
 31
0.0
  0
LINE
  8
0
 62
     0
 10
111.682
 20
88.5624
 30
0.0
 11
112.482
 21
88.5624
 31
0.0
  0
LINE
  8
0
 62
     0
 10
112.482
 20
88.5624
 30
0.0
 11
112.482
 21
91.6615
 31
0.0
  0
LINE
  8
0
 62
     0
 10
112.482
 20
91.6615
 30
0.0
 11
111.682
 21
91.6615
 31
0.0
  0
LINE
  8
0
 62
     0
 10
111.682
 20
91.6615
 30
0.0
 11
111.682
 21
92.662
 31
0.0
  0
LINE
  8
0
 62
     0
 10
111.682
 20
92.662
 30
0.0
 11
97.6824
 21
92.662
 31
0.0
  0
LINE
  8
0
 62
     0
 10
116.732
 20
92.662
 30
0.0
 11
116.732
 21
91.6615
 31
0.0
  0
LINE
  8
0
 62
     0
 10
116.732
 20
91.6615
 30
0.0
 11
115.932
 21
91.6615
 31
0.0
  0
LINE
  8
0
 62
     0
 10
115.932
 20
91.6615
 30
0.0
 11
115.932
 21
88.5624
 31
0.0
  0
LINE
  8
0
 62
     0
 10
115.932
 20
88.5624
 30
0.0
 11
116.732
 21
88.5624
 31
0.0
  0
LINE
  8
0
 62
     0
 10
116.732
 20
88.5624
 30
0.0
 11
116.732
 21
82.7624
 31
0.0
  0
LINE
  8
0
 62
     0
 10
116.732
 20
82.7624
 30
0.0
 11
115.932
 21
82.7624
 31
0.0
  0
LINE
  8
0
 62
     0
 10
115.932
 20
82.7624
 30
0.0
 11
115.932
 21
79.6618
 31
0.0
  0
LINE
  8
0
 62
     0
 10
115.932
 20
79.6618
 30
0.0
 11
116.732
 21
79.6618
 31
0.0
  0
LINE
  8
0
 62
     0
 10
116.732
 20
79.6618
 30
0.0
 11
116.732
 21
78.6624
 31
0.0
  0
LINE
  8
0
 62
     0
 10
116.732
 20
78.6624
 30
0.0
 11
130.732
 21
78.6624
 31
0.0
  0
LINE
  8
0
 62
     0
 10
130.732
 20
78.6624
 30
0.0
 11
130.732
 21
79.6618
 31
0.0
  0
LINE
  8
0
 62
     0
 10
130.732
 20
79.6618
 30
0.0
 11
131.532
 21
79.6618
 31
0.0
  0
LINE
  8
0
 62
     0
 10
131.532
 20
79.6618
 30
0.0
 11
131.532
 21
82.7624
 31
0.0
  0
LINE
  8
0
 62
     0
 10
131.532
 20
82.7624
 30
0.0
 11
130.732
 21
82.7624
 31
0.0
  0
LINE
  8
0
 62
     0
 10
130.732
 20
82.7624
 30
0.0
 11
130.732
 21
88.5624
 31
0.0
  0
LINE
  8
0
 62
     0
 10
130.732
 20
88.5624
 30
0.0
 11
131.532
 21
88.5624
 31
0.0
  0
LINE
  8
0
 62
     0
 10
131.532
 20
88.5624
 30
0.0
 11
131.532
 21
91.6615
 31
0.0
  0
LINE
  8
0
 62
     0
 10
131.532
 20
91.6615
 30
0.0
 11
130.732
 21
91.6615
 31
0.0
  0
LINE
  8
0
 62
     0
 10
130.732
 20
91.6615
 30
0.0
 11
130.732
 21
92.662
 31
0.0
  0
LINE
  8
0
 62
     0
 10
130.732
 20
92.662
 30
0.0
 11
116.732
 21
92.662
 31
0.0
  0
LINE
  8
0
 62
     0
 10
135.782
 20
92.662
 30
0.0
 11
135.782
 21
91.6615
 31
0.0
  0
LINE
  8
0
 62
     0
 10
135.782
 20
91.6615
 30
0.0
 11
134.982
 21
91.6615
 31
0.0
  0
LINE
  8
0
 62
     0
 10
134.982
 20
91.6615
 30
0.0
 11
134.982
 21
88.5624
 31
0.0
  0
LINE
  8
0
 62
     0
 10
134.982
 20
88.5624
 30
0.0
 11
135.782
 21
88.5624
 31
0.0
  0
LINE
  8
0
 62
     0
 10
135.782
 20
88.5624
 30
0.0
 11
135.782
 21
82.7624
 31
0.0
  0
LINE
  8
0
 62
     0
 10
135.782
 20
82.7624
 30
0.0
 11
134.982
 21
82.7624
 31
0.0
  0
LINE
  8
0
 62
     0
 10
134.982
 20
82.7624
 30
0.0
 11
134.982
 21
79.6618
 31
0.0
  0
LINE
  8
0
 62
     0
 10
134.982
 20
79.6618
 30
0.0
 11
135.782
 21
79.6618
 31
0.0
  0
LINE
  8
0
 62
     0
 10
135.782
 20
79.6618
 30
0.0
 11
135.782
 21
78.6624
 31
0.0
  0
LINE
  8
0
 62
     0
 10
135.782
 20
78.6624
 30
0.0
 11
149.782
 21
78.6624
 31
0.0
  0
LINE
  8
0
 62
     0
 10
149.782
 20
78.6624
 30
0.0
 11
149.782
 21
79.6618
 31
0.0
  0
LINE
  8
0
 62
     0
 10
149.782
 20
79.6618
 30
0.0
 11
150.581
 21
79.6618
 31
0.0
  0
LINE
  8
0
 62
     0
 10
150.581
 20
79.6618
 30
0.0
 11
150.581
 21
82.7624
 31
0.0
  0
LINE
  8
0
 62
     0
 10
150.581
 20
82.7624
 30
0.0
 11
149.782
 21
82.7624
 31
0.0
  0
LINE
  8
0
 62
     0
 10
149.782
 20
82.7624
 30
0.0
 11
149.782
 21
88.5624
 31
0.0
  0
LINE
  8
0
 62
     0
 10
149.782
 20
88.5624
 30
0.0
 11
150.581
 21
88.5624
 31
0.0
  0
LINE
  8
0
 62
     0
 10
150.581
 20
88.5624
 30
0.0
 11
150.581
 21
91.6615
 31
0.0
  0
LINE
  8
0
 62
     0
 10
150.581
 20
91.6615
 30
0.0
 11
149.782
 21
91.6615
 31
0.0
  0
LINE
  8
0
 62
     0
 10
149.782
 20
91.6615
 30
0.0
 11
149.782
 21
92.662
 31
0.0
  0
LINE
  8
0
 62
     0
 10
149.782
 20
92.662
 30
0.0
 11
135.782
 21
92.662
 31
0.0
  0
LINE
  8
0
 62
     0
 10
154.831
 20
92.662
 30
0.0
 11
154.831
 21
91.6615
 31
0.0
  0
LINE
  8
0
 62
     0
 10
154.831
 20
91.6615
 30
0.0
 11
154.032
 21
91.6615
 31
0.0
  0
LINE
  8
0
 62
     0
 10
154.032
 20
91.6615
 30
0.0
 11
154.032
 21
88.5624
 31
0.0
  0
LINE
  8
0
 62
     0
 10
154.032
 20
88.5624
 30
0.0
 11
154.831
 21
88.5624
 31
0.0
  0
LINE
  8
0
 62
     0
 10
154.831
 20
88.5624
 30
0.0
 11
154.831
 21
82.7624
 31
0.0
  0
LINE
  8
0
 62
     0
 10
154.831
 20
82.7624
 30
0.0
 11
154.032
 21
82.7624
 31
0.0
  0
LINE
  8
0
 62
     0
 10
154.032
 20
82.7624
 30
0.0
 11
154.032
 21
79.6618
 31
0.0
  0
LINE
  8
0
 62
     0
 10
154.032
 20
79.6618
 30
0.0
 11
154.831
 21
79.6618
 31
0.0
  0
LINE
  8
0
 62
     0
 10
154.831
 20
79.6618
 30
0.0
 11
154.831
 21
78.6624
 31
0.0
  0
LINE
  8
0
 62
     0
 10
154.831
 20
78.6624
 30
0.0
 11
168.832
 21
78.6624
 31
0.0
  0
LINE
  8
0
 62
     0
 10
168.832
 20
78.6624
 30
0.0
 11
168.832
 21
79.6618
 31
0.0
  0
LINE
  8
0
 62
     0
 10
168.832
 20
79.6618
 30
0.0
 11
169.632
 21
79.6618
 31
0.0
  0
LINE
  8
0
 62
     0
 10
169.632
 20
79.6618
 30
0.0
 11
169.632
 21
82.7624
 31
0.0
  0
LINE
  8
0
 62
     0
 10
169.632
 20
82.7624
 30
0.0
 11
168.832
 21
82.7624
 31
0.0
  0
LINE
  8
0
 62
     0
 10
168.832
 20
82.7624
 30
0.0
 11
168.832
 21
88.5624
 31
0.0
  0
LINE
  8
0
 62
     0
 10
168.832
 20
88.5624
 30
0.0
 11
169.632
 21
88.5624
 31
0.0
  0
LINE
  8
0
 62
     0
 10
169.632
 20
88.5624
 30
0.0
 11
169.632
 21
91.6615
 31
0.0
  0
LINE
  8
0
 62
     0
 10
169.632
 20
91.6615
 30
0.0
 11
168.832
 21
91.6615
 31
0.0
  0
LINE
  8
0
 62
     0
 10
168.832
 20
91.6615
 30
0.0
 11
168.832
 21
92.662
 31
0.0
  0
LINE
  8
0
 62
     0
 10
168.832
 20
92.662
 30
0.0
 11
154.831
 21
92.662
 31
0.0
  0
LINE
  8
0
 62
     0
 10
173.882
 20
92.662
 30
0.0
 11
173.882
 21
91.6615
 31
0.0
  0
LINE
  8
0
 62
     0
 10
173.882
 20
91.6615
 30
0.0
 11
173.082
 21
91.6615
 31
0.0
  0
LINE
  8
0
 62
     0
 10
173.082
 20
91.6615
 30
0.0
 11
173.082
 21
88.5624
 31
0.0
  0
LINE
  8
0
 62
     0
 10
173.082
 20
88.5624
 30
0.0
 11
173.882
 21
88.5624
 31
0.0
  0
LINE
  8
0
 62
     0
 10
173.882
 20
88.5624
 30
0.0
 11
173.882
 21
82.7624
 31
0.0
  0
LINE
  8
0
 62
     0
 10
173.882
 20
82.7624
 30
0.0
 11
173.082
 21
82.7624
 31
0.0
  0
LINE
  8
0
 62
     0
 10
173.082
 20
82.7624
 30
0.0
 11
173.082
 21
79.6618
 31
0.0
  0
LINE
  8
0
 62
     0
 10
173.082
 20
79.6618
 30
0.0
 11
173.882
 21
79.6618
 31
0.0
  0
LINE
  8
0
 62
     0
 10
173.882
 20
79.6618
 30
0.0
 11
173.882
 21
78.6624
 31
0.0
  0
LINE
  8
0
 62
     0
 10
173.882
 20
78.6624
 30
0.0
 11
187.882
 21
78.6624
 31
0.0
  0
LINE
  8
0
 62
     0
 10
187.882
 20
78.6624
 30
0.0
 11
187.882
 21
79.6618
 31
0.0
  0
LINE
  8
0
 62
     0
 10
187.882
 20
79.6618
 30
0.0
 11
188.681
 21
79.6618
 31
0.0
  0
LINE
  8
0
 62
     0
 10
188.681
 20
79.6618
 30
0.0
 11
188.681
 21
82.7624
 31
0.0
  0
LINE
  8
0
 62
     0
 10
188.681
 20
82.7624
 30
0.0
 11
187.882
 21
82.7624
 31
0.0
  0
LINE
  8
0
 62
     0
 10
187.882
 20
82.7624
 30
0.0
 11
187.882
 21
88.5624
 31
0.0
  0
LINE
  8
0
 62
     0
 10
187.882
 20
88.5624
 30
0.0
 11
188.681
 21
88.5624
 31
0.0
  0
LINE
  8
0
 62
     0
 10
188.681
 20
88.5624
 30
0.0
 11
188.681
 21
91.6615
 31
0.0
  0
LINE
  8
0
 62
     0
 10
188.681
 20
91.6615
 30
0.0
 11
187.882
 21
91.6615
 31
0.0
  0
LINE
  8
0
 62
     0
 10
187.882
 20
91.6615
 30
0.0
 11
187.882
 21
92.662
 31
0.0
  0
LINE
  8
0
 62
     0
 10
187.882
 20
92.662
 30
0.0
 11
173.882
 21
92.662
 31
0.0
  0
LINE
  8
0
 62
     0
 10
192.931
 20
92.662
 30
0.0
 11
192.931
 21
91.6615
 31
0.0
  0
LINE
  8
0
 62
     0
 10
192.931
 20
91.6615
 30
0.0
 11
192.132
 21
91.6615
 31
0.0
  0
LINE
  8
0
 62
     0
 10
192.132
 20
91.6615
 30
0.0
 11
192.132
 21
88.5624
 31
0.0
  0
LINE
  8
0
 62
     0
 10
192.132
 20
88.5624
 30
0.0
 11
192.931
 21
88.5624
 31
0.0
  0
LINE
  8
0
 62
     0
 10
192.931
 20
88.5624
 30
0.0
 11
192.931
 21
82.7624
 31
0.0
  0
LINE
  8
0
 62
     0
 10
192.931
 20
82.7624
 30
0.0
 11
192.132
 21
82.7624
 31
0.0
  0
LINE
  8
0
 62
     0
 10
192.132
 20
82.7624
 30
0.0
 11
192.132
 21
79.6618
 31
0.0
  0
LINE
  8
0
 62
     0
 10
192.132
 20
79.6618
 30
0.0
 11
192.931
 21
79.6618
 31
0.0
  0
LINE
  8
0
 62
     0
 10
192.931
 20
79.6618
 30
0.0
 11
192.931
 21
78.6624
 31
0.0
  0
LINE
  8
0
 62
     0
 10
192.931
 20
78.6624
 30
0.0
 11
206.932
 21
78.6624
 31
0.0
  0
LINE
  8
0
 62
     0
 10
206.932
 20
78.6624
 30
0.0
 11
206.932
 21
79.6618
 31
0.0
  0
LINE
  8
0
 62
     0
 10
206.932
 20
79.6618
 30
0.0
 11
207.732
 21
79.6618
 31
0.0
  0
LINE
  8
0
 62
     0
 10
207.732
 20
79.6618
 30
0.0
 11
207.732
 21
82.7624
 31
0.0
  0
LINE
  8
0
 62
     0
 10
207.732
 20
82.7624
 30
0.0
 11
206.932
 21
82.7624
 31
0.0
  0
LINE
  8
0
 62
     0
 10
206.932
 20
82.7624
 30
0.0
 11
206.932
 21
88.5624
 31
0.0
  0
LINE
  8
0
 62
     0
 10
206.932
 20
88.5624
 30
0.0
 11
207.732
 21
88.5624
 31
0.0
  0
LINE
  8
0
 62
     0
 10
207.732
 20
88.5624
 30
0.0
 11
207.732
 21
91.6615
 31
0.0
  0
LINE
  8
0
 62
     0
 10
207.732
 20
91.6615
 30
0.0
 11
206.932
 21
91.6615
 31
0.0
  0
LINE
  8
0
 62
     0
 10
206.932
 20
91.6615
 30
0.0
 11
206.932
 21
92.662
 31
0.0
  0
LINE
  8
0
 62
     0
 10
206.932
 20
92.662
 30
0.0
 11
192.931
 21
92.662
 31
0.0
  0
LINE
  8
0
 62
     0
 10
211.982
 20
92.662
 30
0.0
 11
211.982
 21
91.6615
 31
0.0
  0
LINE
  8
0
 62
     0
 10
211.982
 20
91.6615
 30
0.0
 11
211.182
 21
91.6615
 31
0.0
  0
LINE
  8
0
 62
     0
 10
211.182
 20
91.6615
 30
0.0
 11
211.182
 21
88.5624
 31
0.0
  0
LINE
  8
0
 62
     0
 10
211.182
 20
88.5624
 30
0.0
 11
211.982
 21
88.5624
 31
0.0
  0
LINE
  8
0
 62
     0
 10
211.982
 20
88.5624
 30
0.0
 11
211.982
 21
82.7624
 31
0.0
  0
LINE
  8
0
 62
     0
 10
211.982
 20
82.7624
 30
0.0
 11
211.182
 21
82.7624
 31
0.0
  0
LINE
  8
0
 62
     0
 10
211.182
 20
82.7624
 30
0.0
 11
211.182
 21
79.6618
 31
0.0
  0
LINE
  8
0
 62
     0
 10
211.182
 20
79.6618
 30
0.0
 11
211.982
 21
79.6618
 31
0.0
  0
LINE
  8
0
 62
     0
 10
211.982
 20
79.6618
 30
0.0
 11
211.982
 21
78.6624
 31
0.0
  0
LINE
  8
0
 62
     0
 10
211.982
 20
78.6624
 30
0.0
 11
225.982
 21
78.6624
 31
0.0
  0
LINE
  8
0
 62
     0
 10
225.982
 20
78.6624
 30
0.0
 11
225.982
 21
79.6618
 31
0.0
  0
LINE
  8
0
 62
     0
 10
225.982
 20
79.6618
 30
0.0
 11
226.782
 21
79.6618
 31
0.0
  0
LINE
  8
0
 62
     0
 10
226.782
 20
79.6618
 30
0.0
 11
226.782
 21
82.7624
 31
0.0
  0
LINE
  8
0
 62
     0
 10
226.782
 20
82.7624
 30
0.0
 11
225.982
 21
82.7624
 31
0.0
  0
LINE
  8
0
 62
     0
 10
225.982
 20
82.7624
 30
0.0
 11
225.982
 21
88.5624
 31
0.0
  0
LINE
  8
0
 62
     0
 10
225.982
 20
88.5624
 30
0.0
 11
226.782
 21
88.5624
 31
0.0
  0
LINE
  8
0
 62
     0
 10
226.782
 20
88.5624
 30
0.0
 11
226.782
 21
91.6615
 31
0.0
  0
LINE
  8
0
 62
     0
 10
226.782
 20
91.6615
 30
0.0
 11
225.982
 21
91.6615
 31
0.0
  0
LINE
  8
0
 62
     0
 10
225.982
 20
91.6615
 30
0.0
 11
225.982
 21
92.662
 31
0.0
  0
LINE
  8
0
 62
     0
 10
225.982
 20
92.662
 30
0.0
 11
211.982
 21
92.662
 31
0.0
  0
LINE
  8
0
 62
     0
 10
231.032
 20
92.662
 30
0.0
 11
231.032
 21
91.6615
 31
0.0
  0
LINE
  8
0
 62
     0
 10
231.032
 20
91.6615
 30
0.0
 11
230.232
 21
91.6615
 31
0.0
  0
LINE
  8
0
 62
     0
 10
230.232
 20
91.6615
 30
0.0
 11
230.232
 21
88.5624
 31
0.0
  0
LINE
  8
0
 62
     0
 10
230.232
 20
88.5624
 30
0.0
 11
231.032
 21
88.5624
 31
0.0
  0
LINE
  8
0
 62
     0
 10
231.032
 20
88.5624
 30
0.0
 11
231.032
 21
82.7624
 31
0.0
  0
LINE
  8
0
 62
     0
 10
231.032
 20
82.7624
 30
0.0
 11
230.232
 21
82.7624
 31
0.0
  0
LINE
  8
0
 62
     0
 10
230.232
 20
82.7624
 30
0.0
 11
230.232
 21
79.6618
 31
0.0
  0
LINE
  8
0
 62
     0
 10
230.232
 20
79.6618
 30
0.0
 11
231.032
 21
79.6618
 31
0.0
  0
LINE
  8
0
 62
     0
 10
231.032
 20
79.6618
 30
0.0
 11
231.032
 21
78.6624
 31
0.0
  0
LINE
  8
0
 62
     0
 10
231.032
 20
78.6624
 30
0.0
 11
245.032
 21
78.6624
 31
0.0
  0
LINE
  8
0
 62
     0
 10
245.032
 20
78.6624
 30
0.0
 11
245.032
 21
79.6618
 31
0.0
  0
LINE
  8
0
 62
     0
 10
245.032
 20
79.6618
 30
0.0
 11
245.831
 21
79.6618
 31
0.0
  0
LINE
  8
0
 62
     0
 10
245.831
 20
79.6618
 30
0.0
 11
245.831
 21
82.7624
 31
0.0
  0
LINE
  8
0
 62
     0
 10
245.831
 20
82.7624
 30
0.0
 11
245.032
 21
82.7624
 31
0.0
  0
LINE
  8
0
 62
     0
 10
245.032
 20
82.7624
 30
0.0
 11
245.032
 21
88.5624
 31
0.0
  0
LINE
  8
0
 62
     0
 10
245.032
 20
88.5624
 30
0.0
 11
245.831
 21
88.5624
 31
0.0
  0
LINE
  8
0
 62
     0
 10
245.831
 20
88.5624
 30
0.0
 11
245.831
 21
91.6615
 31
0.0
  0
LINE
  8
0
 62
     0
 10
245.831
 20
91.6615
 30
0.0
 11
245.032
 21
91.6615
 31
0.0
  0
LINE
  8
0
 62
     0
 10
245.032
 20
91.6615
 30
0.0
 11
245.032
 21
92.662
 31
0.0
  0
LINE
  8
0
 62
     0
 10
245.032
 20
92.662
 30
0.0
 11
231.032
 21
92.662
 31
0.0
  0
LINE
  8
0
 62
     0
 10
250.081
 20
92.662
 30
0.0
 11
250.081
 21
91.6615
 31
0.0
  0
LINE
  8
0
 62
     0
 10
250.081
 20
91.6615
 30
0.0
 11
249.282
 21
91.6615
 31
0.0
  0
LINE
  8
0
 62
     0
 10
249.282
 20
91.6615
 30
0.0
 11
249.282
 21
88.5624
 31
0.0
  0
LINE
  8
0
 62
     0
 10
249.282
 20
88.5624
 30
0.0
 11
250.081
 21
88.5624
 31
0.0
  0
LINE
  8
0
 62
     0
 10
250.081
 20
88.5624
 30
0.0
 11
250.081
 21
82.7624
 31
0.0
  0
LINE
  8
0
 62
     0
 10
250.081
 20
82.7624
 30
0.0
 11
249.282
 21
82.7624
 31
0.0
  0
LINE
  8
0
 62
     0
 10
249.282
 20
82.7624
 30
0.0
 11
249.282
 21
79.6618
 31
0.0
  0
LINE
  8
0
 62
     0
 10
249.282
 20
79.6618
 30
0.0
 11
250.081
 21
79.6618
 31
0.0
  0
LINE
  8
0
 62
     0
 10
250.081
 20
79.6618
 30
0.0
 11
250.081
 21
78.6624
 31
0.0
  0
LINE
  8
0
 62
     0
 10
250.081
 20
78.6624
 30
0.0
 11
264.082
 21
78.6624
 31
0.0
  0
LINE
  8
0
 62
     0
 10
264.082
 20
78.6624
 30
0.0
 11
264.082
 21
79.6618
 31
0.0
  0
LINE
  8
0
 62
     0
 10
264.082
 20
79.6618
 30
0.0
 11
264.881
 21
79.6618
 31
0.0
  0
LINE
  8
0
 62
     0
 10
264.881
 20
79.6618
 30
0.0
 11
264.881
 21
82.7624
 31
0.0
  0
LINE
  8
0
 62
     0
 10
264.881
 20
82.7624
 30
0.0
 11
264.082
 21
82.7624
 31
0.0
  0
LINE
  8
0
 62
     0
 10
264.082
 20
82.7624
 30
0.0
 11
264.082
 21
88.5624
 31
0.0
  0
LINE
  8
0
 62
     0
 10
264.082
 20
88.5624
 30
0.0
 11
264.881
 21
88.5624
 31
0.0
  0
LINE
  8
0
 62
     0
 10
264.881
 20
88.5624
 30
0.0
 11
264.881
 21
91.6615
 31
0.0
  0
LINE
  8
0
 62
     0
 10
264.881
 20
91.6615
 30
0.0
 11
264.082
 21
91.6615
 31
0.0
  0
LINE
  8
0
 62
     0
 10
264.082
 20
91.6615
 30
0.0
 11
264.082
 21
92.662
 31
0.0
  0
LINE
  8
0
 62
     0
 10
264.082
 20
92.662
 30
0.0
 11
250.081
 21
92.662
 31
0.0
  0
LINE
  8
0
 62
     0
 10
269.131
 20
92.662
 30
0.0
 11
269.131
 21
91.6615
 31
0.0
  0
LINE
  8
0
 62
     0
 10
269.131
 20
91.6615
 30
0.0
 11
268.332
 21
91.6615
 31
0.0
  0
LINE
  8
0
 62
     0
 10
268.332
 20
91.6615
 30
0.0
 11
268.332
 21
88.5624
 31
0.0
  0
LINE
  8
0
 62
     0
 10
268.332
 20
88.5624
 30
0.0
 11
269.131
 21
88.5624
 31
0.0
  0
LINE
  8
0
 62
     0
 10
269.131
 20
88.5624
 30
0.0
 11
269.131
 21
82.7624
 31
0.0
  0
LINE
  8
0
 62
     0
 10
269.131
 20
82.7624
 30
0.0
 11
268.332
 21
82.7624
 31
0.0
  0
LINE
  8
0
 62
     0
 10
268.332
 20
82.7624
 30
0.0
 11
268.332
 21
79.6618
 31
0.0
  0
LINE
  8
0
 62
     0
 10
268.332
 20
79.6618
 30
0.0
 11
269.131
 21
79.6618
 31
0.0
  0
LINE
  8
0
 62
     0
 10
269.131
 20
79.6618
 30
0.0
 11
269.131
 21
78.6624
 31
0.0
  0
LINE
  8
0
 62
     0
 10
269.131
 20
78.6624
 30
0.0
 11
283.132
 21
78.6624
 31
0.0
  0
LINE
  8
0
 62
     0
 10
283.132
 20
78.6624
 30
0.0
 11
283.132
 21
79.6618
 31
0.0
  0
LINE
  8
0
 62
     0
 10
283.132
 20
79.6618
 30
0.0
 11
283.931
 21
79.6618
 31
0.0
  0
LINE
  8
0
 62
     0
 10
283.931
 20
79.6618
 30
0.0
 11
283.931
 21
82.7624
 31
0.0
  0
LINE
  8
0
 62
     0
 10
283.931
 20
82.7624
 30
0.0
 11
283.132
 21
82.7624
 31
0.0
  0
LINE
  8
0
 62
     0
 10
283.132
 20
82.7624
 30
0.0
 11
283.132
 21
88.5624
 31
0.0
  0
LINE
  8
0
 62
     0
 10
283.132
 20
88.5624
 30
0.0
 11
283.931
 21
88.5624
 31
0.0
  0
LINE
  8
0
 62
     0
 10
283.931
 20
88.5624
 30
0.0
 11
283.931
 21
91.6615
 31
0.0
  0
LINE
  8
0
 62
     0
 10
283.931
 20
91.6615
 30
0.0
 11
283.132
 21
91.6615
 31
0.0
  0
LINE
  8
0
 62
     0
 10
283.132
 20
91.6615
 30
0.0
 11
283.132
 21
92.662
 31
0.0
  0
LINE
  8
0
 62
     0
 10
283.132
 20
92.662
 30
0.0
 11
269.131
 21
92.662
 31
0.0
  0
ENDSEC
  0
EOF
